0
SECTION
2
HEADER
9
$INSUNITS
70
1
9
$ACADVER
1
AC1014
9
$HANDSEED
5
FFFF
0
ENDSEC
0
SECTION
2
TABLES
0
TABLE
2
VPORT
5
8
100
AcDbSymbolTable
0
ENDTAB
0
TABLE
2
LTYPE
5
5
100
AcDbSymbolTable
0
LTYPE
5
14
100
AcDbSymbolTableRecord
100
AcDbLinetypeTableRecord
2
BYBLOCK
70
0
0
LTYPE
5
15
100
AcDbSymbolTableRecord
100
AcDbLinetypeTableRecord
2
BYLAYER
70
0
0
ENDTAB
0
TABLE
2
LAYER
5
2
100
AcDbSymbolTable
70
2
0
LAYER
5
50
100
AcDbSymbolTableRecord
100
AcDbLayerTableRecord
2
0
70
0
6
CONTINUOUS
0
ENDTAB
0
TABLE
2
STYLE
5
3
100
AcDbSymbolTable
70
1
0
STYLE
5
11
100
AcDbSymbolTableRecord
100
AcDbTextStyleTableRecord
2
STANDARD
70
0
0
ENDTAB
0
TABLE
2
VIEW
5
6
100
AcDbSymbolTable
70
0
0
ENDTAB
0
TABLE
2
UCS
5
7
100
AcDbSymbolTable
70
0
0
ENDTAB
0
TABLE
2
APPID
5
9
100
AcDbSymbolTable
70
2
0
APPID
5
12
100
AcDbSymbolTableRecord
100
AcDbRegAppTableRecord
2
ACAD
70
0
0
ENDTAB
0
TABLE
2
DIMSTYLE
5
A
100
AcDbSymbolTable
70
1
0
ENDTAB
0
TABLE
2
BLOCK_RECORD
5
1
100
AcDbSymbolTable
70
1
0
BLOCK_RECORD
5
1F
100
AcDbSymbolTableRecord
100
AcDbBlockTableRecord
2
*MODEL_SPACE
0
BLOCK_RECORD
5
1B
100
AcDbSymbolTableRecord
100
AcDbBlockTableRecord
2
*PAPER_SPACE
0
ENDTAB
0
ENDSEC
0
SECTION
2
BLOCKS
0
BLOCK
5
20
100
AcDbEntity
100
AcDbBlockBegin
2
*MODEL_SPACE
0
ENDBLK
5
21
100
AcDbEntity
100
AcDbBlockEnd
0
BLOCK
5
1C
100
AcDbEntity
100
AcDbBlockBegin
2
*PAPER_SPACE
0
ENDBLK
5
1D
100
AcDbEntity
100
AcDbBlockEnd
0
ENDSEC
0
SECTION
2
ENTITIES
0
LWPOLYLINE
5
100
100
AcDbEntity
8
0
100
AcDbPolyline
90
8
70
1
43
0.0
10
0.80000003191429792
20
0
10
0.19999999999999998
20
0
42
-0.41421356237309503
10
0
20
0.19999999999999998
10
0
20
0.80000003191429792
42
-0.41421356237309503
10
0.19999999999999998
20
1.0000000319142979
10
0.80000003191429792
20
1.0000000319142979
42
-0.41421356237309503
10
1.0000000319142979
20
0.80000003191429792
10
1.0000000319142979
20
0.19999999999999998
42
-0.41421356237309459
0
LWPOLYLINE
5
101
100
AcDbEntity
8
0
100
AcDbPolyline
90
8
70
1
43
0.0
10
1.8000000319142979
20
0
10
1.2
20
0
42
-0.41421356237309503
10
0.99999999999999989
20
0.19999999999999998
10
0.99999999999999989
20
0.80000003191429792
42
-0.41421356237309503
10
1.2
20
1.0000000319142979
10
1.8000000319142979
20
1.0000000319142979
42
-0.41421356237309503
10
2.0000000319142979
20
0.80000003191429792
10
2.0000000319142979
20
0.19999999999999998
42
-0.41421356237309481
0
LWPOLYLINE
5
102
100
AcDbEntity
8
0
100
AcDbPolyline
90
8
70
1
43
0.0
10
2.8000000319142977
20
0
10
2.1999999999999997
20
0
42
-0.41421356237309503
10
1.9999999999999998
20
0.19999999999999998
10
1.9999999999999998
20
0.80000003191429792
42
-0.41421356237309503
10
2.1999999999999997
20
1.0000000319142979
10
2.8000000319142977
20
1.0000000319142979
42
-0.41421356237309503
10
3.0000000319142979
20
0.80000003191429792
10
3.0000000319142974
20
0.19999999999999998
42
-0.41421356237309431
0
LWPOLYLINE
5
103
100
AcDbEntity
8
0
100
AcDbPolyline
90
8
70
1
43
0.0
10
3.8000000319142977
20
0
10
3.1999999999999997
20
0
42
-0.41421356237309503
10
3
20
0.19999999999999998
10
3
20
0.80000003191429792
42
-0.41421356237309503
10
3.1999999999999997
20
1.0000000319142979
10
3.8000000319142977
20
1.0000000319142983
42
-0.41421356237309503
10
4.0000000319142979
20
0.80000003191429792
10
4.0000000319142979
20
0.19999999999999998
42
-0.41421356237309481
0
LWPOLYLINE
5
104
100
AcDbEntity
8
0
100
AcDbPolyline
90
8
70
1
43
0.0
10
4.8000000319142977
20
0
10
4.1999999999999993
20
3.4967654318902565e-16
42
-0.41421356237309503
10
3.9999999999999996
20
0.19999999999999998
10
3.9999999999999996
20
0.80000003191429792
42
-0.41421356237309503
10
4.1999999999999993
20
1.0000000319142979
10
4.8000000319142977
20
1.0000000319142976
42
-0.41421356237309503
10
5.0000000319142979
20
0.80000003191429792
10
5.0000000319142979
20
0.20000000000000004
42
-0.41421356237309387
0
LWPOLYLINE
5
105
100
AcDbEntity
8
0
100
AcDbPolyline
90
8
70
1
43
0.0
10
5.8000000319142977
20
0
10
5.1999999999999993
20
3.4967654318902565e-16
42
-0.41421356237309503
10
4.9999999999999991
20
0.19999999999999998
10
4.9999999999999991
20
0.80000003191429792
42
-0.41421356237309503
10
5.1999999999999993
20
1.0000000319142979
10
5.8000000319142977
20
1.0000000319142976
42
-0.41421356237309503
10
6.000000031914297
20
0.80000003191429792
10
6.000000031914297
20
0.20000000000000004
42
-0.41421356237309387
0
LWPOLYLINE
5
106
100
AcDbEntity
8
0
100
AcDbPolyline
90
8
70
1
43
0.0
10
6.8000000319142968
20
0
10
6.2000000000000002
20
-3.4967654318902565e-16
42
-0.41421356237309503
10
6
20
0.19999999999999998
10
6
20
0.80000003191429792
42
-0.41421356237309503
10
6.2000000000000002
20
1.0000000319142979
10
6.8000000319142968
20
1.000000031914299
42
-0.41421356237309503
10
7.0000000319142979
20
0.80000003191429792
10
7.000000031914297
20
0.19999999999999998
42
-0.41421356237309481
0
LWPOLYLINE
5
107
100
AcDbEntity
8
0
100
AcDbPolyline
90
8
70
1
43
0.0
10
7.8000000319142977
20
0
10
7.1999999999999993
20
3.4967654318902565e-16
42
-0.41421356237309503
10
7
20
0.19999999999999998
10
7
20
0.80000003191429792
42
-0.41421356237309503
10
7.1999999999999993
20
1.0000000319142979
10
7.8000000319142977
20
1.0000000319142976
42
-0.41421356237309503
10
8.000000031914297
20
0.80000003191429792
10
8.000000031914297
20
0.19999999999999998
42
-0.41421356237309481
0
LWPOLYLINE
5
108
100
AcDbEntity
8
0
100
AcDbPolyline
90
8
70
1
43
0.0
10
8.8000000319142977
20
0
10
8.1999999999999993
20
3.4967654318902565e-16
42
-0.41421356237309503
10
7.9999999999999991
20
0.19999999999999998
10
7.9999999999999991
20
0.80000003191429792
42
-0.41421356237309503
10
8.1999999999999993
20
1.0000000319142979
10
8.8000000319142977
20
1.0000000319142976
42
-0.41421356237309503
10
9.000000031914297
20
0.80000003191429792
10
9.000000031914297
20
0.19999999999999998
42
-0.41421356237309481
0
LWPOLYLINE
5
109
100
AcDbEntity
8
0
100
AcDbPolyline
90
8
70
1
43
0.0
10
9.8000000319142977
20
0
10
9.1999999999999993
20
3.4967654318902565e-16
42
-0.41421356237309503
10
8.9999999999999982
20
0.19999999999999998
10
8.9999999999999982
20
0.80000003191429792
42
-0.41421356237309503
10
9.1999999999999993
20
1.0000000319142979
10
9.8000000319142977
20
1.0000000319142976
42
-0.41421356237309503
10
10.000000031914297
20
0.80000003191429792
10
10.000000031914297
20
0.19999999999999998
42
-0.41421356237309481
0
LWPOLYLINE
5
110
100
AcDbEntity
8
0
100
AcDbPolyline
90
8
70
1
43
0.0
10
10.800000031914298
20
0
10
10.199999999999998
20
3.4967654318902565e-16
42
-0.41421356237309503
10
9.9999999999999982
20
0.19999999999999998
10
9.9999999999999982
20
0.80000003191429792
42
-0.41421356237309503
10
10.199999999999998
20
1.0000000319142979
10
10.800000031914298
20
1.0000000319142976
42
-0.41421356237309503
10
11.000000031914297
20
0.80000003191429792
10
11.000000031914297
20
0.19999999999999998
42
-0.41421356237309481
0
LWPOLYLINE
5
111
100
AcDbEntity
8
0
100
AcDbPolyline
90
8
70
1
43
0.0
10
0.80000003191429792
20
0.99999999999999989
10
0.19999999999999998
20
0.99999999999999989
42
-0.41421356237309503
10
0
20
1.2
10
0
20
1.8000000319142979
42
-0.41421356237309503
10
0.19999999999999998
20
2.0000000319142979
10
0.80000003191429792
20
2.0000000319142979
42
-0.41421356237309503
10
1.0000000319142979
20
1.8000000319142979
10
1.0000000319142979
20
1.2
42
-0.41421356237309453
0
LWPOLYLINE
5
112
100
AcDbEntity
8
0
100
AcDbPolyline
90
8
70
1
43
0.0
10
1.8000000319142979
20
0.99999999999999989
10
1.2
20
0.99999999999999989
42
-0.41421356237309503
10
0.99999999999999989
20
1.2
10
0.99999999999999989
20
1.8000000319142979
42
-0.41421356237309503
10
1.2
20
2.0000000319142979
10
1.8000000319142979
20
2.0000000319142979
42
-0.41421356237309503
10
2.0000000319142979
20
1.8000000319142979
10
2.0000000319142983
20
1.2
42
-0.41421356237309476
0
LWPOLYLINE
5
113
100
AcDbEntity
8
0
100
AcDbPolyline
90
8
70
1
43
0.0
10
2.8000000319142977
20
0.99999999999999989
10
2.1999999999999997
20
0.99999999999999989
42
-0.41421356237309503
10
1.9999999999999998
20
1.2
10
1.9999999999999998
20
1.8000000319142979
42
-0.41421356237309503
10
2.1999999999999997
20
2.0000000319142979
10
2.8000000319142977
20
2.0000000319142979
42
-0.41421356237309503
10
3.0000000319142979
20
1.8000000319142979
10
3.0000000319142979
20
1.2
42
-0.41421356237309426
0
LWPOLYLINE
5
114
100
AcDbEntity
8
0
100
AcDbPolyline
90
8
70
1
43
0.0
10
3.8000000319142977
20
0.99999999999999989
10
3.1999999999999997
20
0.99999999999999989
42
-0.41421356237309503
10
3
20
1.2
10
3
20
1.8000000319142979
42
-0.41421356237309503
10
3.1999999999999997
20
2.0000000319142979
10
3.8000000319142977
20
2.0000000319142983
42
-0.41421356237309503
10
4.0000000319142979
20
1.8000000319142979
10
4.0000000319142979
20
1.2
42
-0.41421356237309476
0
LWPOLYLINE
5
115
100
AcDbEntity
8
0
100
AcDbPolyline
90
8
70
1
43
0.0
10
4.8000000319142977
20
0.99999999999999989
10
4.1999999999999993
20
1.0000000000000002
42
-0.41421356237309503
10
3.9999999999999996
20
1.2
10
3.9999999999999996
20
1.8000000319142979
42
-0.41421356237309503
10
4.1999999999999993
20
2.0000000319142979
10
4.8000000319142977
20
2.0000000319142974
42
-0.41421356237309503
10
5.0000000319142979
20
1.8000000319142979
10
5.0000000319142979
20
1.2
42
-0.41421356237309381
0
LWPOLYLINE
5
116
100
AcDbEntity
8
0
100
AcDbPolyline
90
8
70
1
43
0.0
10
5.8000000319142977
20
0.99999999999999989
10
5.1999999999999993
20
1.0000000000000002
42
-0.41421356237309503
10
4.9999999999999991
20
1.2
10
4.9999999999999991
20
1.8000000319142979
42
-0.41421356237309503
10
5.1999999999999993
20
2.0000000319142979
10
5.8000000319142977
20
2.0000000319142974
42
-0.41421356237309503
10
6.000000031914297
20
1.8000000319142979
10
6.000000031914297
20
1.2
42
-0.41421356237309381
0
LWPOLYLINE
5
117
100
AcDbEntity
8
0
100
AcDbPolyline
90
8
70
1
43
0.0
10
6.8000000319142968
20
0.99999999999999989
10
6.2000000000000002
20
0.99999999999999956
42
-0.41421356237309503
10
6
20
1.2
10
6
20
1.8000000319142979
42
-0.41421356237309503
10
6.2000000000000002
20
2.0000000319142979
10
6.8000000319142968
20
2.0000000319142988
42
-0.41421356237309503
10
7.0000000319142979
20
1.8000000319142979
10
7.000000031914297
20
1.2
42
-0.41421356237309476
0
LWPOLYLINE
5
118
100
AcDbEntity
8
0
100
AcDbPolyline
90
8
70
1
43
0.0
10
7.8000000319142977
20
0.99999999999999989
10
7.1999999999999993
20
1.0000000000000002
42
-0.41421356237309503
10
7
20
1.2
10
7
20
1.8000000319142979
42
-0.41421356237309503
10
7.1999999999999993
20
2.0000000319142979
10
7.8000000319142977
20
2.0000000319142974
42
-0.41421356237309503
10
8.000000031914297
20
1.8000000319142979
10
8.000000031914297
20
1.2
42
-0.41421356237309476
0
LWPOLYLINE
5
119
100
AcDbEntity
8
0
100
AcDbPolyline
90
8
70
1
43
0.0
10
8.8000000319142977
20
0.99999999999999989
10
8.1999999999999993
20
1.0000000000000002
42
-0.41421356237309503
10
7.9999999999999991
20
1.2
10
7.9999999999999991
20
1.8000000319142979
42
-0.41421356237309503
10
8.1999999999999993
20
2.0000000319142979
10
8.8000000319142977
20
2.0000000319142974
42
-0.41421356237309503
10
9.000000031914297
20
1.8000000319142979
10
9.000000031914297
20
1.2
42
-0.41421356237309476
0
LWPOLYLINE
5
120
100
AcDbEntity
8
0
100
AcDbPolyline
90
8
70
1
43
0.0
10
9.8000000319142977
20
0.99999999999999989
10
9.1999999999999993
20
1.0000000000000002
42
-0.41421356237309503
10
8.9999999999999982
20
1.2
10
8.9999999999999982
20
1.8000000319142979
42
-0.41421356237309503
10
9.1999999999999993
20
2.0000000319142979
10
9.8000000319142977
20
2.0000000319142974
42
-0.41421356237309503
10
10.000000031914297
20
1.8000000319142979
10
10.000000031914297
20
1.2
42
-0.41421356237309476
0
LWPOLYLINE
5
121
100
AcDbEntity
8
0
100
AcDbPolyline
90
8
70
1
43
0.0
10
10.800000031914298
20
0.99999999999999989
10
10.199999999999998
20
1.0000000000000002
42
-0.41421356237309503
10
9.9999999999999982
20
1.2
10
9.9999999999999982
20
1.8000000319142979
42
-0.41421356237309503
10
10.199999999999998
20
2.0000000319142979
10
10.800000031914298
20
2.0000000319142974
42
-0.41421356237309503
10
11.000000031914297
20
1.8000000319142979
10
11.000000031914297
20
1.2
42
-0.41421356237309476
0
LWPOLYLINE
5
122
100
AcDbEntity
8
0
100
AcDbPolyline
90
8
70
1
43
0.0
10
0.80000003191429792
20
1.9999999999999998
10
0.19999999999999998
20
1.9999999999999998
42
-0.41421356237309503
10
0
20
2.1999999999999997
10
0
20
2.8000000319142977
42
-0.41421356237309503
10
0.19999999999999998
20
3.0000000319142979
10
0.80000003191429792
20
3.0000000319142979
42
-0.41421356237309503
10
1.0000000319142979
20
2.8000000319142977
10
1.0000000319142976
20
2.2000000000000002
42
-0.41421356237309476
0
LWPOLYLINE
5
123
100
AcDbEntity
8
0
100
AcDbPolyline
90
8
70
1
43
0.0
10
1.8000000319142979
20
1.9999999999999998
10
1.2
20
1.9999999999999998
42
-0.41421356237309503
10
0.99999999999999989
20
2.1999999999999997
10
0.99999999999999989
20
2.8000000319142977
42
-0.41421356237309503
10
1.2
20
3.0000000319142979
10
1.8000000319142979
20
3.0000000319142979
42
-0.41421356237309503
10
2.0000000319142979
20
2.8000000319142977
10
2.0000000319142979
20
2.1999999999999997
42
-0.41421356237309503
0
LWPOLYLINE
5
124
100
AcDbEntity
8
0
100
AcDbPolyline
90
8
70
1
43
0.0
10
2.8000000319142977
20
1.9999999999999998
10
2.1999999999999997
20
1.9999999999999998
42
-0.41421356237309503
10
1.9999999999999998
20
2.1999999999999997
10
1.9999999999999998
20
2.8000000319142977
42
-0.41421356237309503
10
2.1999999999999997
20
3.0000000319142979
10
2.8000000319142977
20
3.0000000319142979
42
-0.41421356237309503
10
3.0000000319142979
20
2.8000000319142977
10
3.0000000319142974
20
2.1999999999999997
42
-0.41421356237309453
0
LWPOLYLINE
5
125
100
AcDbEntity
8
0
100
AcDbPolyline
90
8
70
1
43
0.0
10
3.8000000319142977
20
1.9999999999999998
10
3.1999999999999997
20
1.9999999999999998
42
-0.41421356237309503
10
3
20
2.1999999999999997
10
3
20
2.8000000319142977
42
-0.41421356237309503
10
3.1999999999999997
20
3.0000000319142979
10
3.8000000319142977
20
3.0000000319142983
42
-0.41421356237309503
10
4.0000000319142979
20
2.8000000319142977
10
4.0000000319142979
20
2.1999999999999997
42
-0.41421356237309503
0
LWPOLYLINE
5
126
100
AcDbEntity
8
0
100
AcDbPolyline
90
8
70
1
43
0.0
10
4.8000000319142977
20
1.9999999999999998
10
4.1999999999999993
20
2
42
-0.41421356237309503
10
3.9999999999999996
20
2.1999999999999997
10
3.9999999999999996
20
2.8000000319142977
42
-0.41421356237309503
10
4.1999999999999993
20
3.0000000319142979
10
4.8000000319142977
20
3.0000000319142974
42
-0.41421356237309503
10
5.0000000319142979
20
2.8000000319142977
10
5.0000000319142979
20
2.1999999999999997
42
-0.41421356237309404
0
LWPOLYLINE
5
127
100
AcDbEntity
8
0
100
AcDbPolyline
90
8
70
1
43
0.0
10
5.8000000319142977
20
1.9999999999999998
10
5.1999999999999993
20
2
42
-0.41421356237309503
10
4.9999999999999991
20
2.1999999999999997
10
4.9999999999999991
20
2.8000000319142977
42
-0.41421356237309503
10
5.1999999999999993
20
3.0000000319142979
10
5.8000000319142977
20
3.0000000319142974
42
-0.41421356237309503
10
6.000000031914297
20
2.8000000319142977
10
6.000000031914297
20
2.1999999999999997
42
-0.41421356237309404
0
LWPOLYLINE
5
128
100
AcDbEntity
8
0
100
AcDbPolyline
90
8
70
1
43
0.0
10
6.8000000319142968
20
1.9999999999999998
10
6.2000000000000002
20
1.9999999999999996
42
-0.41421356237309503
10
6
20
2.1999999999999997
10
6
20
2.8000000319142977
42
-0.41421356237309503
10
6.2000000000000002
20
3.0000000319142979
10
6.8000000319142968
20
3.0000000319142988
42
-0.41421356237309503
10
7.0000000319142979
20
2.8000000319142977
10
7.000000031914297
20
2.1999999999999997
42
-0.41421356237309503
0
LWPOLYLINE
5
129
100
AcDbEntity
8
0
100
AcDbPolyline
90
8
70
1
43
0.0
10
7.8000000319142977
20
1.9999999999999998
10
7.1999999999999993
20
2
42
-0.41421356237309503
10
7
20
2.1999999999999997
10
7
20
2.8000000319142977
42
-0.41421356237309503
10
7.1999999999999993
20
3.0000000319142979
10
7.8000000319142977
20
3.0000000319142974
42
-0.41421356237309503
10
8.000000031914297
20
2.8000000319142977
10
8.000000031914297
20
2.1999999999999997
42
-0.41421356237309503
0
LWPOLYLINE
5
130
100
AcDbEntity
8
0
100
AcDbPolyline
90
8
70
1
43
0.0
10
8.8000000319142977
20
1.9999999999999998
10
8.1999999999999993
20
2
42
-0.41421356237309503
10
7.9999999999999991
20
2.1999999999999997
10
7.9999999999999991
20
2.8000000319142977
42
-0.41421356237309503
10
8.1999999999999993
20
3.0000000319142979
10
8.8000000319142977
20
3.0000000319142974
42
-0.41421356237309503
10
9.000000031914297
20
2.8000000319142977
10
9.000000031914297
20
2.1999999999999997
42
-0.41421356237309503
0
LWPOLYLINE
5
131
100
AcDbEntity
8
0
100
AcDbPolyline
90
8
70
1
43
0.0
10
9.8000000319142977
20
1.9999999999999998
10
9.1999999999999993
20
2
42
-0.41421356237309503
10
8.9999999999999982
20
2.1999999999999997
10
8.9999999999999982
20
2.8000000319142977
42
-0.41421356237309503
10
9.1999999999999993
20
3.0000000319142979
10
9.8000000319142977
20
3.0000000319142974
42
-0.41421356237309503
10
10.000000031914297
20
2.8000000319142977
10
10.000000031914297
20
2.1999999999999997
42
-0.41421356237309503
0
LWPOLYLINE
5
132
100
AcDbEntity
8
0
100
AcDbPolyline
90
8
70
1
43
0.0
10
10.800000031914298
20
1.9999999999999998
10
10.199999999999998
20
2
42
-0.41421356237309503
10
9.9999999999999982
20
2.1999999999999997
10
9.9999999999999982
20
2.8000000319142977
42
-0.41421356237309503
10
10.199999999999998
20
3.0000000319142979
10
10.800000031914298
20
3.0000000319142974
42
-0.41421356237309503
10
11.000000031914297
20
2.8000000319142977
10
11.000000031914297
20
2.1999999999999997
42
-0.41421356237309503
0
LINE
5
133
100
AcDbEntity
8
0
100
AcDbLine
10
10.341675392935459
20
1.2512130992042871
30
0
11
10.280151947926212
21
1.2512130992042871
31
0
0
LINE
5
134
100
AcDbEntity
8
0
100
AcDbLine
10
10.280151947926212
20
1.2512130992042871
30
0
11
10.280151947926212
21
1.6432541084464276
31
0
0
SPLINE
5
135
100
AcDbEntity
8
0
100
AcDbSpline
70
1064
71
3
72
9
73
5
74
0
42
0.000000001
43
0.0000000001
44
0.0000000001
40
0
40
0
40
0
40
0
40
0.08456363239377325
40
0.18332236569593999
40
0.18332236569593999
40
0.18332236569593999
40
0.18332236569593999
10
10.280151947926212
20
1.6432541084464276
30
0
10
10.271764676859677
20
1.6359561343440507
30
0
10
10.253582222651817
20
1.6201351266677784
30
0
10
10.232976318322097
20
1.6076157187799325
30
0
10
10.221875583273084
20
1.6008713105894585
30
0
0
SPLINE
5
136
100
AcDbEntity
8
0
100
AcDbSpline
70
1064
71
3
72
9
73
5
74
0
42
0.000000001
43
0.0000000001
44
0.0000000001
40
0
40
0
40
0
40
0
40
0.098864348740880681
40
0.18343550984673962
40
0.18343550984673962
40
0.18343550984673962
40
0.18343550984673962
10
10.221875583273084
20
1.6008713105894585
30
0
10
10.210601821211982
20
1.5944156634162236
30
0
10
10.18968418691907
20
1.5824376860594243
30
0
10
10.167385615428701
20
1.5732979753581691
30
0
10
10.157105075507516
20
1.5690842004635337
30
0
0
LINE
5
137
100
AcDbEntity
8
0
100
AcDbLine
10
10.157105075507516
20
1.5690842004635337
30
0
11
10.157105075507516
21
1.6285568467637821
31
0
0
SPLINE
5
138
100
AcDbEntity
8
0
100
AcDbSpline
70
1064
71
3
72
9
73
5
74
0
42
0.000000001
43
0.0000000001
44
0.0000000001
40
0
40
0
40
0
40
0
40
0.14048305822892435
40
0.27427191030922315
40
0.27427191030922315
40
0.27427191030922315
40
0.27427191030922315
10
10.157105075507516
20
1.6285568467637821
30
0
10
10.173602038249676
20
1.6369263512857641
30
0
10
10.205809861332652
20
1.653266542213591
30
0
10
10.233723350491818
20
1.6761724819057968
30
0
10
10.247339450178986
20
1.6873459169607599
30
0
0
SPLINE
5
139
100
AcDbEntity
8
0
100
AcDbSpline
70
1064
71
3
72
9
73
5
74
0
42
0.000000001
43
0.0000000001
44
0.0000000001
40
0
40
0
40
0
40
0
40
0.12033544367645023
40
0.22062442043448061
40
0.22062442043448061
40
0.22062442043448061
40
0.22062442043448061
10
10.247339450178986
20
1.6873459169607599
30
0
10
10.258964873396723
20
1.6981760535841459
30
0
10
10.280279061314745
20
1.7180321536886616
30
0
10
10.295230492417222
20
1.7429920992421308
30
0
10
10.302026946424363
20
1.754338111594544
30
0
0
LINE
5
140
100
AcDbEntity
8
0
100
AcDbLine
10
10.302026946424363
20
1.754338111594544
30
0
11
10.341675392935459
21
1.754338111594544
31
0
0
LINE
5
141
100
AcDbEntity
8
0
100
AcDbLine
10
10.341675392935459
20
1.754338111594544
30
0
11
10.341675392935459
21
1.2512130992042871
31
0
0
LINE
5
142
100
AcDbEntity
8
0
100
AcDbLine
10
10.499585555943781
20
1.3834884778144927
30
0
11
10.561109000953028
21
1.3916916257176948
31
0
0
SPLINE
5
143
100
AcDbEntity
8
0
100
AcDbSpline
70
1064
71
3
72
9
73
5
74
0
42
0.000000001
43
0.0000000001
44
0.0000000001
40
0
40
0
40
0
40
0
40
0.1199156046432165
40
0.21480759820122342
40
0.21480759820122342
40
0.21480759820122342
40
0.21480759820122342
10
10.561109000953028
20
1.3916916257176948
30
0
10
10.564654659827188
20
1.3760811054193964
30
0
10
10.571006080637389
20
1.3481176190831041
30
0
10
10.589152361861919
20
1.3260665405099372
30
0
10
10.597168543856778
20
1.3163254008880885
30
0
0
SPLINE
5
144
100
AcDbEntity
8
0
100
AcDbSpline
70
1064
71
3
72
9
73
5
74
0
42
0.000000001
43
0.0000000001
44
0.0000000001
40
0
40
0
40
0
40
0
40
0.084125889426472866
40
0.17120674002400596
40
0.17120674002400596
40
0.17120674002400596
40
0.17120674002400596
10
10.597168543856778
20
1.3163254008880885
30
0
10
10.606221274989464
20
1.3095968613506801
30
0
10
10.624644718665449
20
1.295903439180931
30
0
10
10.647552899269366
20
1.2941473379172945
30
0
10
10.659204682676675
20
1.2932541324760165
30
0
0
SPLINE
5
145
100
AcDbEntity
8
0
100
AcDbSpline
70
1064
71
3
72
9
73
5
74
0
42
0.000000001
43
0.0000000001
44
0.0000000001
40
0
40
0
40
0
40
0
40
0.1034619572348847
40
0.20558805609786723
40
0.20558805609786723
40
0.20558805609786723
40
0.20558805609786723
10
10.659204682676675
20
1.2932541324760165
30
0
10
10.673078685584915
20
1.2944744937709511
30
0
10
10.700647555964258
20
1.2968994595561343
30
0
10
10.721942062240911
20
1.314559558076168
30
0
10
10.732520132263678
20
1.3233322319445782
30
0
0
SPLINE
5
146
100
AcDbEntity
8
0
100
AcDbSpline
70
1064
71
3
72
9
73
5
74
0
42
0.000000001
43
0.0000000001
44
0.0000000001
40
0
40
0
40
0
40
0
40
0.10275516527719956
40
0.20822462850363213
40
0.20822462850363213
40
0.20822462850363213
40
0.20822462850363213
10
10.732520132263678
20
1.3233322319445782
30
0
10
10.741242646747377
20
1.3340506749502004
30
0
10
10.758918082654526
20
1.3557706907466067
30
0
10
10.761247472311235
20
1.383698182242056
30
0
10
10.762427349439619
20
1.3978439514455028
30
0
0
SPLINE
5
147
100
AcDbEntity
8
0
100
AcDbSpline
70
1064
71
3
72
9
73
5
74
0
42
0.000000001
43
0.0000000001
44
0.0000000001
40
0
40
0
40
0
40
0
40
0.099772121702130526
40
0.19503300145672048
40
0.19503300145672048
40
0.19503300145672048
40
0.19503300145672048
10
10.762427349439619
20
1.3978439514455028
30
0
10
10.761384318065927
20
1.4112402717776109
30
0
10
10.759345416457402
20
1.4374271917134929
30
0
10
10.742815549779175
20
1.4577937120203364
30
0
10
10.734741789798901
20
1.4677414266505713
30
0
0
SPLINE
5
148
100
AcDbEntity
8
0
100
AcDbSpline
70
1064
71
3
72
9
73
5
74
0
42
0.000000001
43
0.0000000001
44
0.0000000001
40
0
40
0
40
0
40
0
40
0.095534062465004399
40
0.19603520185863249
40
0.19603520185863249
40
0.19603520185863249
40
0.19603520185863249
10
10.734741789798901
20
1.4677414266505713
30
0
10
10.724714363044573
20
1.4757650897246362
30
0
10
10.704138156221717
20
1.4922295880384824
30
0
10
10.67782272325646
20
1.4942303514674733
30
0
10
10.664331620783182
20
1.495256080532275
30
0
0
SPLINE
5
149
100
AcDbEntity
8
0
100
AcDbSpline
70
1064
71
3
72
9
73
5
74
0
42
0.000000001
43
0.0000000001
44
0.0000000001
40
0
40
0
40
0
40
0
40
0.049891483123935175
40
0.1118304167424804
40
0.1118304167424804
40
0.1118304167424804
40
0.1118304167424804
10
10.664331620783182
20
1.495256080532275
30
0
10
10.657781904634996
20
1.4948664139250107
30
0
10
10.643100892154829
20
1.4939929867115371
30
0
10
10.628828442861199
20
1.4904065540916058
30
0
10
10.620923435304912
20
1.4884201552348006
30
0
0
LINE
5
150
100
AcDbEntity
8
0
100
AcDbLine
10
10.62092343530491
20
1.4884201552348006
30
0
11
10.627759384068781
21
1.5424240519105112
31
0
0
SPLINE
5
151
100
AcDbEntity
8
0
100
AcDbSpline
70
1064
71
3
72
9
73
5
74
0
42
0.000000001
43
0.0000000001
44
0.0000000001
40
0
40
0
40
0
40
0
40
0.014167685306205009
40
0.025245251238736527
40
0.025245251238736527
40
0.025245251238736527
40
0.025245251238736527
10
10.627759384068781
20
1.5424240519105112
30
0
10
10.629608980681617
20
1.5422256316459035
30
0
10
10.632904757667919
20
1.5418720686380716
30
0
10
10.636217757828527
20
1.5417805920745957
30
0
10
10.637671495696555
20
1.5417404523408453
30
0
0
SPLINE
5
152
100
AcDbEntity
8
0
100
AcDbSpline
70
1064
71
3
72
9
73
5
74
0
42
0.000000001
43
0.0000000001
44
0.0000000001
40
0
40
0
40
0
40
0
40
0.095736782928248845
40
0.18916055323103315
40
0.18916055323103315
40
0.18916055323103315
40
0.18916055323103315
10
10.637671495696555
20
1.5417404523408453
30
0
10
10.650380389331266
20
1.5425523776791188
30
0
10
10.675491128144142
20
1.5441566121381483
30
0
10
10.697535879619643
20
1.556267082189823
30
0
10
10.708423476230305
20
1.5622482751660594
30
0
0
SPLINE
5
153
100
AcDbEntity
8
0
100
AcDbSpline
70
1064
71
3
72
9
73
5
74
0
42
0.000000001
43
0.0000000001
44
0.0000000001
40
0
40
0
40
0
40
0
40
0.089277643852044467
40
0.18577894727254082
40
0.18577894727254082
40
0.18577894727254082
40
0.18577894727254082
10
10.708423476230305
20
1.5622482751660594
30
0
10
10.717591182985005
20
1.5702687586964308
30
0
10
10.736668376740409
20
1.5869586815326393
30
0
10
10.738774644780332
20
1.6123114342973395
30
0
10
10.739868727905408
20
1.6254807073662736
30
0
0
SPLINE
5
154
100
AcDbEntity
8
0
100
AcDbSpline
70
1064
71
3
72
9
73
5
74
0
42
0.000000001
43
0.0000000001
44
0.0000000001
40
0
40
0
40
0
40
0
40
0.079903220816176249
40
0.15720057475778132
40
0.15720057475778132
40
0.15720057475778132
40
0.15720057475778132
10
10.739868727905408
20
1.6254807073662736
30
0
10
10.738979389927906
20
1.6362120649878467
30
0
10
10.737229717764643
20
1.6573248007300465
30
0
10
10.723647082016434
20
1.6735548824797322
30
0
10
10.716968341785956
20
1.6815354027509823
30
0
0
SPLINE
5
155
100
AcDbEntity
8
0
100
AcDbSpline
70
1064
71
3
72
9
73
5
74
0
42
0.000000001
43
0.0000000001
44
0.0000000001
40
0
40
0
40
0
40
0
40
0.078936651251119469
40
0.16367989337683364
40
0.16367989337683364
40
0.16367989337683364
40
0.16367989337683364
10
10.716968341785956
20
1.6815354027509823
30
0
10
10.708578575162774
20
1.6880130418330281
30
0
10
10.691181889534823
20
1.7014448160149589
30
0
10
10.66921211153735
20
1.7029650720557687
30
0
10
10.657837530470134
20
1.7037521658343728
30
0
0
SPLINE
5
156
100
AcDbEntity
8
0
100
AcDbSpline
70
1064
71
3
72
9
73
5
74
0
42
0.000000001
43
0.0000000001
44
0.0000000001
40
0
40
0
40
0
40
0
40
0.084779763249349757
40
0.16553216035966278
40
0.16553216035966278
40
0.16553216035966278
40
0.16553216035966278
10
10.657837530470134
20
1.7037521658343728
30
0
10
10.646475551173104
20
1.7029071211097602
30
0
10
10.624291330470959
20
1.7012571745481702
30
0
10
10.60663595899825
20
1.687772089145976
30
0
10
10.598023049185459
20
1.6811935912329516
30
0
0
SPLINE
5
157
100
AcDbEntity
8
0
100
AcDbSpline
70
1064
71
3
72
9
73
5
74
0
42
0.000000001
43
0.0000000001
44
0.0000000001
40
0
40
0
40
0
40
0
40
0.087303387308287822
40
0.19147046319621372
40
0.19147046319621372
40
0.19147046319621372
40
0.19147046319621372
10
10.598023049185459
20
1.6811935912329516
30
0
10
10.590685908753338
20
1.6721656601805572
30
0
10
10.574594371868141
20
1.6523659457181457
30
0
10
10.56984510503619
20
1.6272058356496704
30
0
10
10.567261326680836
20
1.6135177970295012
30
0
0
LINE
5
158
100
AcDbEntity
8
0
100
AcDbLine
10
10.567261326680836
20
1.6135177970295012
30
0
11
10.505737881671589
21
1.6244552962785765
31
0
0
SPLINE
5
159
100
AcDbEntity
8
0
100
AcDbSpline
70
1064
71
3
72
9
73
5
74
0
42
0.000000001
43
0.0000000001
44
0.0000000001
40
0
40
0
40
0
40
0
40
0.14711833240824715
40
0.28044880240047021
40
0.28044880240047021
40
0.28044880240047021
40
0.28044880240047021
10
10.505737881671589
20
1.6244552962785765
30
0
10
10.510338448511147
20
1.6436029756658519
30
0
10
10.519108419183034
20
1.6801038227391332
30
0
10
10.544795394450054
20
1.7073676322084474
30
0
10
10.557007450467822
20
1.7203293439333969
30
0
0
SPLINE
5
160
100
AcDbEntity
8
0
100
AcDbSpline
70
1064
71
3
72
9
73
5
74
0
42
0.000000001
43
0.0000000001
44
0.0000000001
40
0
40
0
40
0
40
0
40
0.13107682735539938
40
0.27143726242126698
40
0.27143726242126698
40
0.27143726242126698
40
0.27143726242126698
10
10.557007450467822
20
1.7203293439333969
30
0
10
10.571467725946697
20
1.7302453623104947
30
0
10
10.601412435999841
20
1.7507797079816836
30
0
10
10.637703956021706
20
1.7531252367234875
30
0
10
10.656470331330802
20
1.754338111594544
30
0
0
SPLINE
5
161
100
AcDbEntity
8
0
100
AcDbSpline
70
1064
71
3
72
9
73
5
74
0
42
0.000000001
43
0.0000000001
44
0.0000000001
40
0
40
0
40
0
40
0
40
0.10067834154996398
40
0.19841889616081099
40
0.19841889616081099
40
0.19841889616081099
40
0.19841889616081099
10
10.656470331330802
20
1.754338111594544
30
0
10
10.669783753945783
20
1.7536490896041286
30
0
10
10.696022114438403
20
1.7522911512366108
30
0
10
10.720131317269402
20
1.7418693439138178
30
0
10
10.732007438453028
20
1.7367355928070098
30
0
0
SPLINE
5
162
100
AcDbEntity
8
0
100
AcDbSpline
70
1064
71
3
72
9
73
5
74
0
42
0.000000001
43
0.0000000001
44
0.0000000001
40
0
40
0
40
0
40
0
40
0.093701504696596036
40
0.18314362189090516
40
0.18314362189090516
40
0.18314362189090516
40
0.18314362189090516
10
10.732007438453028
20
1.7367355928070098
30
0
10
10.74276310959281
20
1.7304569516780115
30
0
10
10.763785531535611
20
1.7181850774894245
30
0
10
10.777914739761584
20
1.698383594949709
30
0
10
10.784815041748422
20
1.6887131161000919
30
0
0
SPLINE
5
163
100
AcDbEntity
8
0
100
AcDbSpline
70
1064
71
3
72
9
73
5
74
0
42
0.000000001
43
0.0000000001
44
0.0000000001
40
0
40
0
40
0
40
0
40
0.086938196244546073
40
0.17216191293026942
40
0.17216191293026942
40
0.17216191293026942
40
0.17216191293026942
10
10.784815041748422
20
1.6887131161000919
30
0
10
10.790148347136943
20
1.6784743278214165
30
0
10
10.800709781553488
20
1.6581986670383655
30
0
10
10.802309359380384
20
1.6353995459209125
30
0
10
10.803101183572018
20
1.6241135082269413
30
0
0
SPLINE
5
164
100
AcDbEntity
8
0
100
AcDbSpline
70
1064
71
3
72
9
73
5
74
0
42
0.000000001
43
0.0000000001
44
0.0000000001
40
0
40
0
40
0
40
0
40
0.079559672770657563
40
0.15830997755055809
40
0.15830997755055809
40
0.15830997755055809
40
0.15830997755055809
10
10.803101183572018
20
1.6241135082269413
30
0
10
10.802389839122601
20
1.6135550081397585
30
0
10
10.800974386797371
20
1.5925454205741105
30
0
10
10.790753742458675
20
1.5741388720314622
30
0
10
10.785669547077102
20
1.5649826499783281
30
0
0
SPLINE
5
165
100
AcDbEntity
8
0
100
AcDbSpline
70
1064
71
3
72
9
73
5
74
0
42
0.000000001
43
0.0000000001
44
0.0000000001
40
0
40
0
40
0
40
0
40
0.081905050813962307
40
0.17135571191814661
40
0.17135571191814661
40
0.17135571191814661
40
0.17135571191814661
10
10.785669547077102
20
1.5649826499783281
30
0
10
10.778928884752652
20
1.5564476892828263
30
0
10
10.764826567741345
20
1.5385914734373221
30
0
10
10.74461106015633
20
1.5280845995267349
30
0
10
10.734058213695631
20
1.5225998286549633
30
0
0
SPLINE
5
166
100
AcDbEntity
8
0
100
AcDbSpline
70
1064
71
3
72
9
73
5
74
0
42
0.000000001
43
0.0000000001
44
0.0000000001
40
0
40
0
40
0
40
0
40
0.10797305560891982
40
0.20931014875442266
40
0.20931014875442266
40
0.20931014875442266
40
0.20931014875442266
10
10.734058213695631
20
1.5225998286549633
30
0
10
10.747903125306861
20
1.5184432209767345
30
0
10
10.774742048151971
20
1.5103854683593114
30
0
10
10.793850071828643
20
1.4899432058603703
30
0
10
10.803101183572018
20
1.4800461250389789
30
0
0
SPLINE
5
167
100
AcDbEntity
8
0
100
AcDbSpline
70
1064
71
3
72
9
73
5
74
0
42
0.000000001
43
0.0000000001
44
0.0000000001
40
0
40
0
40
0
40
0
40
0.1035689346568683
40
0.21761450873427324
40
0.21761450873427324
40
0.21761450873427324
40
0.21761450873427324
10
10.803101183572018
20
1.4800461250389789
30
0
10
10.810274400775397
20
1.4682463946091047
30
0
10
10.825346450545235
20
1.4434533179090188
30
0
10
10.82689764398833
20
1.4144243873667244
30
0
10
10.827710580348832
20
1.399211150584835
30
0
0
SPLINE
5
168
100
AcDbEntity
8
0
100
AcDbSpline
70
1064
71
3
72
9
73
5
74
0
42
0.000000001
43
0.0000000001
44
0.0000000001
40
0
40
0
40
0
40
0
40
0.1569598857919221
40
0.31458852845832669
40
0.31458852845832669
40
0.31458852845832669
40
0.31458852845832669
10
10.827710580348832
20
1.399211150584835
30
0
10
10.825699869783882
20
1.3781531849488229
30
0
10
10.821669881646523
20
1.3359475322858156
30
0
10
10.793815688788117
20
1.3039760093676553
30
0
10
10.779858985934535
20
1.2879562651440988
30
0
0
SPLINE
5
169
100
AcDbEntity
8
0
100
AcDbSpline
70
1064
71
3
72
9
73
5
74
0
42
0.000000001
43
0.0000000001
44
0.0000000001
40
0
40
0
40
0
40
0
40
0.16275984634503646
40
0.33494147004667885
40
0.33494147004667885
40
0.33494147004667885
40
0.33494147004667885
10
10.779858985934535
20
1.2879562651440988
30
0
10
10.762528834689325
20
1.274650479500028
30
0
10
10.726865331285074
20
1.2472686681759786
30
0
10
10.68195152530269
20
1.2440044136075812
30
0
10
10.658862918091435
20
1.2423263751978144
30
0
0
SPLINE
5
170
100
AcDbEntity
8
0
100
AcDbSpline
70
1064
71
3
72
9
73
5
74
0
42
0.000000001
43
0.0000000001
44
0.0000000001
40
0
40
0
40
0
40
0
40
0.15535763772934946
40
0.30098958745760584
40
0.30098958745760584
40
0.30098958745760584
40
0.30098958745760584
10
10.658862918091435
20
1.2423263751978144
30
0
10
10.638059179917596
20
1.2437418853651248
30
0
10
10.597754057736037
20
1.246484292030982
30
0
10
10.565111092937478
20
1.2701719051390989
30
0
10
10.549316996375271
20
1.2816330101908797
30
0
0
SPLINE
5
171
100
AcDbEntity
8
0
100
AcDbSpline
70
1064
71
3
72
9
73
5
74
0
42
0.000000001
43
0.0000000001
44
0.0000000001
40
0
40
0
40
0
40
0
40
0.14383521098325439
40
0.29323734616254998
40
0.29323734616254998
40
0.29323734616254998
40
0.29323734616254998
10
10.549316996375271
20
1.2816330101908797
30
0
10
10.536332442280548
20
1.2958948715586791
30
0
10
10.509860786572521
20
1.3249705780581025
30
0
10
10.503053708831407
20
1.3637371914102401
30
0
10
10.499585555943781
20
1.3834884778144927
30
0
0
LINE
5
172
100
AcDbEntity
8
0
100
AcDbLine
10
9.3503147514018838
20
1.2571099630156963
30
0
11
9.2887913063926373
21
1.2571099630156963
31
0
0
LINE
5
173
100
AcDbEntity
8
0
100
AcDbLine
10
9.2887913063926373
20
1.2571099630156963
30
0
11
9.2887913063926373
21
1.6491509722578366
31
0
0
SPLINE
5
174
100
AcDbEntity
8
0
100
AcDbSpline
70
1064
71
3
72
9
73
5
74
0
42
0.000000001
43
0.0000000001
44
0.0000000001
40
0
40
0
40
0
40
0
40
0.08456363239377325
40
0.18332236569593999
40
0.18332236569593999
40
0.18332236569593999
40
0.18332236569593999
10
9.2887913063926373
20
1.6491509722578366
30
0
10
9.2804040353261019
20
1.6418529981554599
30
0
10
9.2622215811182418
20
1.6260319904791873
30
0
10
9.2416156767885216
20
1.6135125825913417
30
0
10
9.2305149417395089
20
1.6067681744008675
30
0
0
SPLINE
5
175
100
AcDbEntity
8
0
100
AcDbSpline
70
1064
71
3
72
9
73
5
74
0
42
0.000000001
43
0.0000000001
44
0.0000000001
40
0
40
0
40
0
40
0
40
0.098864348740880681
40
0.18343550984673962
40
0.18343550984673962
40
0.18343550984673962
40
0.18343550984673962
10
9.2305149417395089
20
1.6067681744008675
30
0
10
9.2192411796784075
20
1.6003125272276326
30
0
10
9.1983235453854952
20
1.5883345498708332
30
0
10
9.1760249738951263
20
1.579194839169578
30
0
10
9.1657444339739413
20
1.5749810642749429
30
0
0
LINE
5
176
100
AcDbEntity
8
0
100
AcDbLine
10
9.1657444339739413
20
1.5749810642749429
30
0
11
9.1657444339739413
21
1.6344537105751911
31
0
0
SPLINE
5
177
100
AcDbEntity
8
0
100
AcDbSpline
70
1064
71
3
72
9
73
5
74
0
42
0.000000001
43
0.0000000001
44
0.0000000001
40
0
40
0
40
0
40
0
40
0.14048305822892435
40
0.27427191030922315
40
0.27427191030922315
40
0.27427191030922315
40
0.27427191030922315
10
9.1657444339739413
20
1.6344537105751911
30
0
10
9.1822413967161012
20
1.6428232150971731
30
0
10
9.2144492197990768
20
1.6591634060250002
30
0
10
9.2423627089582432
20
1.682069345717206
30
0
10
9.2559788086454109
20
1.6932427807721688
30
0
0
SPLINE
5
178
100
AcDbEntity
8
0
100
AcDbSpline
70
1064
71
3
72
9
73
5
74
0
42
0.000000001
43
0.0000000001
44
0.0000000001
40
0
40
0
40
0
40
0
40
0.12033544367645023
40
0.22062442043448061
40
0.22062442043448061
40
0.22062442043448061
40
0.22062442043448061
10
9.2559788086454109
20
1.6932427807721688
30
0
10
9.2676042318631477
20
1.7040729173955551
30
0
10
9.2889184197811723
20
1.7239290175000705
30
0
10
9.303869850883645
20
1.7488889630535398
30
0
10
9.3106663048907876
20
1.7602349754059532
30
0
0
LINE
5
179
100
AcDbEntity
8
0
100
AcDbLine
10
9.3106663048907876
20
1.7602349754059532
30
0
11
9.3503147514018838
21
1.7602349754059532
31
0
0
LINE
5
180
100
AcDbEntity
8
0
100
AcDbLine
10
9.3503147514018838
20
1.7602349754059532
30
0
11
9.3503147514018838
21
1.2571099630156963
31
0
0
LINE
5
181
100
AcDbEntity
8
0
100
AcDbLine
10
9.8312229537759599
20
1.3162408212643091
30
0
11
9.8312229537759599
21
1.2571099630156961
31
0
0
LINE
5
182
100
AcDbEntity
8
0
100
AcDbLine
10
9.8312229537759599
20
1.2571099630156961
30
0
11
9.5000217665070039
21
1.2571099630156961
31
0
0
SPLINE
5
183
100
AcDbEntity
8
0
100
AcDbSpline
70
1064
71
3
72
9
73
5
74
0
42
0.000000001
43
0.0000000001
44
0.0000000001
40
0
40
0
40
0
40
0
40
0.055468393233113256
40
0.11059588235660786
40
0.11059588235660786
40
0.11059588235660786
40
0.11059588235660786
10
9.5000217665070039
20
1.2571099630156963
30
0
10
9.5001458948463835
20
1.2644337671814443
30
0
10
9.5003933886427383
20
1.2790363640245479
30
0
10
9.5049354809679993
20
1.2929160973726408
30
0
10
9.507199526788904
20
1.2998345723906963
30
0
0
SPLINE
5
184
100
AcDbEntity
8
0
100
AcDbSpline
70
1064
71
3
72
9
73
5
74
0
42
0.000000001
43
0.0000000001
44
0.0000000001
40
0
40
0
40
0
40
0
40
0.094979968646788634
40
0.19884518894124587
40
0.19884518894124587
40
0.19884518894124587
40
0.19884518894124587
10
9.507199526788904
20
1.2998345723906963
30
0
10
9.5122408964148324
20
1.3112944421647976
30
0
10
9.5227952491912404
20
1.3352862375184833
30
0
10
9.5391563430288659
20
1.3557801312986979
30
0
10
9.5477024316958907
20
1.3664849555064498
30
0
0
SPLINE
5
185
100
AcDbEntity
8
0
100
AcDbSpline
70
1064
71
3
72
9
73
5
74
0
42
0.000000001
43
0.0000000001
44
0.0000000001
40
0
40
0
40
0
40
0
40
0.12471801621948589
40
0.28123880516664301
40
0.28123880516664301
40
0.28123880516664301
40
0.28123880516664301
10
9.5477024316958907
20
1.3664849555064498
30
0
10
9.5588346212240758
20
1.3785062597153566
30
0
10
9.5839376799215881
20
1.4056142697265801
30
0
10
9.6123711927895865
20
1.4292240660084552
30
0
10
9.6281955946320039
20
1.4423638741467064
30
0
0
SPLINE
5
186
100
AcDbEntity
8
0
100
AcDbSpline
70
1064
71
3
72
9
73
5
74
0
42
0.000000001
43
0.0000000001
44
0.0000000001
40
0
40
0
40
0
40
0
40
0.2312385322959315
40
0.38956563906432373
40
0.38956563906432373
40
0.38956563906432373
40
0.38956563906432373
10
9.6281955946320039
20
1.4423638741467064
30
0
10
9.651719685103286
20
1.4616509152258861
30
0
10
9.6913505253739896
20
1.4941436334985263
30
0
10
9.7249432382118997
20
1.5327865569588019
30
0
10
9.738595974744058
20
1.5484917980145403
30
0
0
SPLINE
5
187
100
AcDbEntity
8
0
100
AcDbSpline
70
1064
71
3
72
9
73
5
74
0
42
0.000000001
43
0.0000000001
44
0.0000000001
40
0
40
0
40
0
40
0
40
0.11108906633062542
40
0.20415795794023489
40
0.20415795794023489
40
0.20415795794023489
40
0.20415795794023489
10
9.738595974744058
20
1.5484917980145403
30
0
10
9.7469495686932266
20
1.5607438104363027
30
0
10
9.7623016887393916
20
1.5832603903240197
30
0
10
9.7657396628130293
20
1.6102068293158656
30
0
10
9.76730692200608
20
1.6224908237048143
30
0
0
SPLINE
5
188
100
AcDbEntity
8
0
100
AcDbSpline
70
1064
71
3
72
9
73
5
74
0
42
0.000000001
43
0.0000000001
44
0.0000000001
40
0
40
0
40
0
40
0
40
0.087217720089816625
40
0.17401416027162259
40
0.17401416027162259
40
0.17401416027162259
40
0.17401416027162259
10
9.76730692200608
20
1.6224908237048143
30
0
10
9.7662280402633641
20
1.6341943041453639
30
0
10
9.7640754880033693
20
1.6575447347576335
30
0
10
9.7487858179694005
20
1.6753193717481929
30
0
10
9.7411594907301033
20
1.6841851744730765
30
0
0
SPLINE
5
189
100
AcDbEntity
8
0
100
AcDbSpline
70
1064
71
3
72
9
73
5
74
0
42
0.000000001
43
0.0000000001
44
0.0000000001
40
0
40
0
40
0
40
0
40
0.090242209992091524
40
0.18824116626365867
40
0.18824116626365867
40
0.18824116626365867
40
0.18824116626365867
10
9.7411594907301033
20
1.6841851744730765
30
0
10
9.7315134053119099
20
1.6915090231795566
30
0
10
9.7113921076491128
20
1.7067862401511629
30
0
10
9.6861250767555003
20
1.7084441203610887
30
0
10
9.672970979249607
20
1.7093072181277511
30
0
0
SPLINE
5
190
100
AcDbEntity
8
0
100
AcDbSpline
70
1064
71
3
72
9
73
5
74
0
42
0.000000001
43
0.0000000001
44
0.0000000001
40
0
40
0
40
0
40
0
40
0.10297623709920754
40
0.19689548695049247
40
0.19689548695049247
40
0.19689548695049247
40
0.19689548695049247
10
9.672970979249607
20
1.7093072181277511
30
0
10
9.6591277332951684
20
1.7084155517942716
30
0
10
9.6326587854101486
20
1.7067106431486134
30
0
10
9.6118182346386405
20
1.6904184687276138
30
0
10
9.601877281063409
20
1.6826470930411244
30
0
0
SPLINE
5
191
100
AcDbEntity
8
0
100
AcDbSpline
70
1064
71
3
72
9
73
5
74
0
42
0.000000001
43
0.0000000001
44
0.0000000001
40
0
40
0
40
0
40
0
40
0.095500273292771623
40
0.20372199346007053
40
0.20372199346007053
40
0.20372199346007053
40
0.20372199346007053
10
9.601877281063409
20
1.6826470930411244
30
0
10
9.5940920712980784
20
1.6724664144248644
30
0
10
9.577484595756772
20
1.6507489044013859
30
0
10
9.5757805337292616
20
1.6233655862070751
30
0
10
9.5748752975259599
20
1.6088189496434702
30
0
0
LINE
5
192
100
AcDbEntity
8
0
100
AcDbLine
10
9.5748752975259599
20
1.6088189496434702
30
0
11
9.5116428887921405
21
1.6153130868893093
31
0
0
SPLINE
5
193
100
AcDbEntity
8
0
100
AcDbSpline
70
1064
71
3
72
9
73
5
74
0
42
0.000000001
43
0.0000000001
44
0.0000000001
40
0
40
0
40
0
40
0
40
0.16313215437232681
40
0.3065167857563672
40
0.3065167857563672
40
0.3065167857563672
40
0.3065167857563672
10
9.5116428887921405
20
1.6153130868893093
30
0
10
9.5147984764001343
20
1.6370287822298342
30
0
10
9.520727660468701
20
1.6778314379775798
30
0
10
9.5478379685651493
20
1.7087068671450747
30
0
10
9.5605198238949498
20
1.7231499979481106
30
0
0
SPLINE
5
194
100
AcDbEntity
8
0
100
AcDbSpline
70
1064
71
3
72
9
73
5
74
0
42
0.000000001
43
0.0000000001
44
0.0000000001
40
0
40
0
40
0
40
0
40
0.14454209894558298
40
0.30923214457844223
40
0.30923214457844223
40
0.30923214457844223
40
0.30923214457844223
10
9.5605198238949498
20
1.7231499979481106
30
0
10
9.5765484470964175
20
1.7339541329494148
30
0
10
9.6108399480735542
20
1.7570684080370216
30
0
10
9.6522722640590288
20
1.7591345793171851
30
0
10
9.6743381783889397
20
1.7602349754059532
30
0
0
SPLINE
5
195
100
AcDbEntity
8
0
100
AcDbSpline
70
1064
71
3
72
9
73
5
74
0
42
0.000000001
43
0.0000000001
44
0.0000000001
40
0
40
0
40
0
40
0
40
0.16603637548054037
40
0.31317694632287935
40
0.31317694632287935
40
0.31317694632287935
40
0.31317694632287935
10
9.6743381783889397
20
1.7602349754059532
30
0
10
9.6966378694203073
20
1.7590095881014149
30
0
10
9.7386994304543588
20
1.7566982689522987
30
0
10
9.7725801132839774
20
1.7318971011945823
30
0
10
9.7884983444009599
20
1.7202447173768265
30
0
0
SPLINE
5
196
100
AcDbEntity
8
0
100
AcDbSpline
70
1064
71
3
72
9
73
5
74
0
42
0.000000001
43
0.0000000001
44
0.0000000001
40
0
40
0
40
0
40
0
40
0.13909889957774324
40
0.2796947662582222
40
0.2796947662582222
40
0.2796947662582222
40
0.2796947662582222
10
9.7884983444009599
20
1.7202447173768265
30
0
10
9.8007602067699668
20
1.7060648861218133
30
0
10
9.8254158923260793
20
1.6775526218228771
30
0
10
9.8288254663782713
20
1.6400002855080327
30
0
10
9.8305393776726895
20
1.6211236245654823
30
0
0
SPLINE
5
197
100
AcDbEntity
8
0
100
AcDbSpline
70
1064
71
3
72
9
73
5
74
0
42
0.000000001
43
0.0000000001
44
0.0000000001
40
0
40
0
40
0
40
0
40
0.076149229802496499
40
0.15419744815209332
40
0.15419744815209332
40
0.15419744815209332
40
0.15419744815209332
10
9.8305393776726895
20
1.6211236245654823
30
0
10
9.8300018925848427
20
1.6110821395685806
30
0
10
9.8289135187538701
20
1.5907487577839503
30
0
10
9.821823398106023
20
1.5716564725753692
30
0
10
9.8182346792842807
20
1.5619927663168691
30
0
0
SPLINE
5
198
100
AcDbEntity
8
0
100
AcDbSpline
70
1064
71
3
72
9
73
5
74
0
42
0.000000001
43
0.0000000001
44
0.0000000001
40
0
40
0
40
0
40
0
40
0.086401219144140812
40
0.18745264303727038
40
0.18745264303727038
40
0.18745264303727038
40
0.18745264303727038
10
9.8182346792842807
20
1.5619927663168691
30
0
10
9.8131311135166435
20
1.5518210676242818
30
0
10
9.8020586205410289
20
1.5297529553569849
30
0
10
9.7860304059933831
20
1.5109482945231307
30
0
10
9.7773899628592638
20
1.5008111328256533
30
0
0
SPLINE
5
199
100
AcDbEntity
8
0
100
AcDbSpline
70
1064
71
3
72
9
73
5
74
0
42
0.000000001
43
0.0000000001
44
0.0000000001
40
0
40
0
40
0
40
0
40
0.13666628129111585
40
0.32912258783200665
40
0.32912258783200665
40
0.32912258783200665
40
0.32912258783200665
10
9.7773899628592638
20
1.5008111328256533
30
0
10
9.7648953005926273
20
1.4879310317117198
30
0
10
9.7348053944326551
20
1.4569129036840329
30
0
10
9.7018261356041009
20
1.4289683033590304
30
0
10
9.6825413262921405
20
1.4126275392633845
30
0
0
SPLINE
5
200
100
AcDbEntity
8
0
100
AcDbSpline
70
1064
71
3
72
9
73
5
74
0
42
0.000000001
43
0.0000000001
44
0.0000000001
40
0
40
0
40
0
40
0
40
0.15214809801198706
40
0.24143675375463353
40
0.24143675375463353
40
0.24143675375463353
40
0.24143675375463353
10
9.6825413262921405
20
1.4126275392633845
30
0
10
9.6672016493685931
20
1.3998330434060817
30
0
10
9.6428598281532221
20
1.3795300518729843
30
0
10
9.6199282035449549
20
1.357655650602158
30
0
10
9.6114475811731506
20
1.349566012822186
30
0
0
SPLINE
5
201
100
AcDbEntity
8
0
100
AcDbSpline
70
1064
71
3
72
9
73
5
74
0
42
0.000000001
43
0.0000000001
44
0.0000000001
40
0
40
0
40
0
40
0
40
0.055781792637927714
40
0.10747049217915641
40
0.10747049217915641
40
0.10747049217915641
40
0.10747049217915641
10
9.6114475811731506
20
1.349566012822186
30
0
10
9.6065054902495763
20
1.3441478756766132
30
0
10
9.5969839435435009
20
1.3337091673061514
30
0
10
9.5892099451955986
20
1.3219138589335711
30
0
10
9.5854709852570039
20
1.3162408212643093
30
0
0
LINE
5
202
100
AcDbEntity
8
0
100
AcDbLine
10
9.5854709852570021
20
1.3162408212643093
30
0
11
9.8312229537759599
21
1.3162408212643091
31
0
0
LINE
5
203
100
AcDbEntity
8
0
100
AcDbLine
10
10.418455290859205
20
0.22426051686281187
30
0
11
10.356931845849958
21
0.22426051686281187
31
0
0
LINE
5
204
100
AcDbEntity
8
0
100
AcDbLine
10
10.356931845849958
20
0.22426051686281187
30
0
11
10.356931845849958
21
0.61630152610495226
31
0
0
SPLINE
5
205
100
AcDbEntity
8
0
100
AcDbSpline
70
1064
71
3
72
9
73
5
74
0
42
0.000000001
43
0.0000000001
44
0.0000000001
40
0
40
0
40
0
40
0
40
0.08456363239377325
40
0.18332236569593999
40
0.18332236569593999
40
0.18332236569593999
40
0.18332236569593999
10
10.356931845849958
20
0.61630152610495237
30
0
10
10.348544574783425
20
0.60900355200257572
30
0
10
10.330362120575565
20
0.59318254432630291
30
0
10
10.309756216245843
20
0.58066313643845724
30
0
10
10.29865548119683
20
0.57391872824798318
30
0
0
SPLINE
5
206
100
AcDbEntity
8
0
100
AcDbSpline
70
1064
71
3
72
9
73
5
74
0
42
0.000000001
43
0.0000000001
44
0.0000000001
40
0
40
0
40
0
40
0
40
0.098864348740880681
40
0.18343550984673962
40
0.18343550984673962
40
0.18343550984673962
40
0.18343550984673962
10
10.29865548119683
20
0.57391872824798318
30
0
10
10.287381719135729
20
0.5674630810747483
30
0
10
10.266464084842818
20
0.55548510371794879
30
0
10
10.244165513352447
20
0.54634539301669371
30
0
10
10.233884973431262
20
0.54213161812205846
30
0
0
LINE
5
207
100
AcDbEntity
8
0
100
AcDbLine
10
10.233884973431262
20
0.54213161812205857
30
0
11
10.233884973431262
21
0.60160426442230674
31
0
0
SPLINE
5
208
100
AcDbEntity
8
0
100
AcDbSpline
70
1064
71
3
72
9
73
5
74
0
42
0.000000001
43
0.0000000001
44
0.0000000001
40
0
40
0
40
0
40
0
40
0.14048305822892435
40
0.27427191030922315
40
0.27427191030922315
40
0.27427191030922315
40
0.27427191030922315
10
10.233884973431262
20
0.60160426442230674
30
0
10
10.250381936173422
20
0.60997376894428879
30
0
10
10.282589759256398
20
0.62631395987211591
30
0
10
10.310503248415564
20
0.64921989956432147
30
0
10
10.324119348102734
20
0.66039333461928451
30
0
0
SPLINE
5
209
100
AcDbEntity
8
0
100
AcDbSpline
70
1064
71
3
72
9
73
5
74
0
42
0.000000001
43
0.0000000001
44
0.0000000001
40
0
40
0
40
0
40
0
40
0.12033544367645023
40
0.22062442043448061
40
0.22062442043448061
40
0.22062442043448061
40
0.22062442043448061
10
10.324119348102734
20
0.66039333461928451
30
0
10
10.335744771320469
20
0.6712234712426709
30
0
10
10.357058959238493
20
0.69107957134718612
30
0
10
10.372010390340968
20
0.71603951690065559
30
0
10
10.378806844348109
20
0.72738552925306876
30
0
0
LINE
5
210
100
AcDbEntity
8
0
100
AcDbLine
10
10.378806844348109
20
0.72738552925306876
30
0
11
10.418455290859205
21
0.72738552925306876
31
0
0
LINE
5
211
100
AcDbEntity
8
0
100
AcDbLine
10
10.418455290859205
20
0.72738552925306876
30
0
11
10.418455290859205
21
0.22426051686281187
31
0
0
LINE
5
212
100
AcDbEntity
8
0
100
AcDbLine
10
10.755808803855968
20
0.22426051686281176
30
0
11
10.694285358846722
21
0.22426051686281176
31
0
0
LINE
5
213
100
AcDbEntity
8
0
100
AcDbLine
10
10.694285358846722
20
0.22426051686281176
30
0
11
10.694285358846722
21
0.61630152610495215
31
0
0
SPLINE
5
214
100
AcDbEntity
8
0
100
AcDbSpline
70
1064
71
3
72
9
73
5
74
0
42
0.000000001
43
0.0000000001
44
0.0000000001
40
0
40
0
40
0
40
0
40
0.084563655379204725
40
0.18332243865502221
40
0.18332243865502221
40
0.18332243865502221
40
0.18332243865502221
10
10.694285358846722
20
0.61630152610495215
30
0
10
10.685898083987574
20
0.60900355170539733
30
0
10
10.667715619263761
20
0.59318254138874393
30
0
10
10.647109702136516
20
0.58066313588352814
30
0
10
10.636008958993999
20
0.57391872824798296
30
0
0
SPLINE
5
215
100
AcDbEntity
8
0
100
AcDbSpline
70
1064
71
3
72
9
73
5
74
0
42
0.000000001
43
0.0000000001
44
0.0000000001
40
0
40
0
40
0
40
0
40
0.098864322537653454
40
0.18343546997203039
40
0.18343546997203039
40
0.18343546997203039
40
0.18343546997203039
10
10.636008958993999
20
0.57391872824798296
30
0
10
10.624735200943865
20
0.56746308094405939
30
0
10
10.603817573095967
20
0.55548510277384644
30
0
10
10.581519006887216
20
0.54634539287947992
30
0
10
10.571238468828229
20
0.54213161812205846
30
0
0
LINE
5
216
100
AcDbEntity
8
0
100
AcDbLine
10
10.571238468828229
20
0.54213161812205846
30
0
11
10.571238468828229
21
0.60160426442230663
31
0
0
SPLINE
5
217
100
AcDbEntity
8
0
100
AcDbSpline
70
1064
71
3
72
9
73
5
74
0
42
0.000000001
43
0.0000000001
44
0.0000000001
40
0
40
0
40
0
40
0
40
0.14048301913802611
40
0.27427194228882656
40
0.27427194228882656
40
0.27427194228882656
40
0.27427194228882656
10
10.571238468828229
20
0.60160426442230663
30
0
10
10.58773542393592
20
0.60997377148988718
30
0
10
10.619943244831285
20
0.62631397383968146
30
0
10
10.647856748627147
20
0.64921990103001193
30
0
10
10.661472861099497
20
0.6603933346192844
30
0
0
SPLINE
5
218
100
AcDbEntity
8
0
100
AcDbSpline
70
1064
71
3
72
9
73
5
74
0
42
0.000000001
43
0.0000000001
44
0.0000000001
40
0
40
0
40
0
40
0
40
0.12033544367645023
40
0.22062442043448061
40
0.22062442043448061
40
0.22062442043448061
40
0.22062442043448061
10
10.661472861099497
20
0.6603933346192844
30
0
10
10.673098284317232
20
0.67122347124267068
30
0
10
10.694412472235257
20
0.69107957134718612
30
0
10
10.709363903337731
20
0.71603951690065548
30
0
10
10.716160357344874
20
0.72738552925306854
30
0
0
LINE
5
219
100
AcDbEntity
8
0
100
AcDbLine
10
10.716160357344874
20
0.72738552925306854
30
0
11
10.755808803855968
21
0.72738552925306854
31
0
0
LINE
5
220
100
AcDbEntity
8
0
100
AcDbLine
10
10.755808803855968
20
0.72738552925306854
30
0
11
10.755808803855968
21
0.22426051686281176
31
0
0
LINE
5
221
100
AcDbEntity
8
0
100
AcDbLine
10
9.3638641451531264
20
0.2250066942503845
30
0
11
9.3023407001438798
21
0.2250066942503845
31
0
0
LINE
5
222
100
AcDbEntity
8
0
100
AcDbLine
10
9.3023407001438798
20
0.2250066942503845
30
0
11
9.3023407001438798
21
0.61704770349252491
31
0
0
SPLINE
5
223
100
AcDbEntity
8
0
100
AcDbSpline
70
1064
71
3
72
9
73
5
74
0
42
0.000000001
43
0.0000000001
44
0.0000000001
40
0
40
0
40
0
40
0
40
0.08456363239377325
40
0.18332236569593999
40
0.18332236569593999
40
0.18332236569593999
40
0.18332236569593999
10
9.3023407001438798
20
0.61704770349252491
30
0
10
9.2939534290773445
20
0.60974972939014838
30
0
10
9.2757709748694843
20
0.59392872171387556
30
0
10
9.2551650705397641
20
0.58140931382602989
30
0
10
9.2440643354907497
20
0.57466490563555583
30
0
0
SPLINE
5
224
100
AcDbEntity
8
0
100
AcDbSpline
70
1064
71
3
72
9
73
5
74
0
42
0.000000001
43
0.0000000001
44
0.0000000001
40
0
40
0
40
0
40
0
40
0.098864348740880681
40
0.18343550984673962
40
0.18343550984673962
40
0.18343550984673962
40
0.18343550984673962
10
9.2440643354907497
20
0.57466490563555583
30
0
10
9.23279057342965
20
0.56820925846232095
30
0
10
9.2118729391367378
20
0.55623128110552145
30
0
10
9.1895743676463688
20
0.54709157040426637
30
0
10
9.1792938277251839
20
0.54287779550963111
30
0
0
LINE
5
225
100
AcDbEntity
8
0
100
AcDbLine
10
9.1792938277251839
20
0.54287779550963122
30
0
11
9.1792938277251839
21
0.6023504418098794
31
0
0
SPLINE
5
226
100
AcDbEntity
8
0
100
AcDbSpline
70
1064
71
3
72
9
73
5
74
0
42
0.000000001
43
0.0000000001
44
0.0000000001
40
0
40
0
40
0
40
0
40
0.14048305822892435
40
0.27427191030922315
40
0.27427191030922315
40
0.27427191030922315
40
0.27427191030922315
10
9.1792938277251839
20
0.6023504418098794
30
0
10
9.1957907904673437
20
0.61071994633186144
30
0
10
9.2279986135503194
20
0.62706013725968857
30
0
10
9.2559121027094857
20
0.64996607695189412
30
0
10
9.2695282023966534
20
0.66113951200685717
30
0
0
SPLINE
5
227
100
AcDbEntity
8
0
100
AcDbSpline
70
1064
71
3
72
9
73
5
74
0
42
0.000000001
43
0.0000000001
44
0.0000000001
40
0
40
0
40
0
40
0
40
0.12033544367645023
40
0.22062442043448061
40
0.22062442043448061
40
0.22062442043448061
40
0.22062442043448061
10
9.2695282023966534
20
0.66113951200685717
30
0
10
9.2811536256143903
20
0.67196964863024355
30
0
10
9.302467813532413
20
0.69182574873475877
30
0
10
9.3174192446348894
20
0.71678569428822825
30
0
10
9.3242156986420301
20
0.72813170664064142
30
0
0
LINE
5
228
100
AcDbEntity
8
0
100
AcDbLine
10
9.3242156986420301
20
0.72813170664064142
30
0
11
9.3638641451531264
21
0.72813170664064142
31
0
0
LINE
5
229
100
AcDbEntity
8
0
100
AcDbLine
10
9.3638641451531264
20
0.72813170664064142
30
0
11
9.3638641451531264
21
0.2250066942503845
31
0
0
SPLINE
5
230
100
AcDbEntity
8
0
100
AcDbSpline
70
1064
71
3
72
9
73
5
74
0
42
0.000000001
43
0.0000000001
44
0.0000000001
40
0
40
0
40
0
40
0
40
0.20402367188473605
40
0.36741406376221419
40
0.36741406376221419
40
0.36741406376221419
40
0.36741406376221419
10
9.521432496643417
20
0.47212583844227662
30
0
10
9.5217945015234804
20
0.49901607011922594
30
0
10
9.5224464145238539
20
0.54744108474947473
30
0
10
9.5344019622245977
20
0.59432043651135691
30
0
10
9.5397186384670132
20
0.61516785747533309
30
0
0
SPLINE
5
231
100
AcDbEntity
8
0
100
AcDbSpline
70
1064
71
3
72
9
73
5
74
0
42
0.000000001
43
0.0000000001
44
0.0000000001
40
0
40
0
40
0
40
0
40
0.13485187701100956
40
0.2557676702023069
40
0.2557676702023069
40
0.2557676702023069
40
0.2557676702023069
10
9.5397186384670132
20
0.61516785747533309
30
0
10
9.5461940280679229
20
0.63188942554851013
30
0
10
9.5584756169385177
20
0.66360449398509236
30
0
10
9.5826403105583697
20
0.68745955257130198
30
0
10
9.5940643231943596
20
0.69873718327535017
30
0
0
SPLINE
5
232
100
AcDbEntity
8
0
100
AcDbSpline
70
1064
71
3
72
9
73
5
74
0
42
0.000000001
43
0.0000000001
44
0.0000000001
40
0
40
0
40
0
40
0
40
0.11760671977065369
40
0.24604768923762049
40
0.24604768923762049
40
0.24604768923762049
40
0.24604768923762049
10
9.5940643231943596
20
0.69873718327535017
30
0
10
9.6072307330028099
20
0.70730603677629389
30
0
10
9.634776477967403
20
0.72523312978113585
30
0
10
9.6676505822788581
20
0.72713756165585797
30
0
10
9.6848114092762767
20
0.7281317066406412
30
0
0
SPLINE
5
233
100
AcDbEntity
8
0
100
AcDbSpline
70
1064
71
3
72
9
73
5
74
0
42
0.000000001
43
0.0000000001
44
0.0000000001
40
0
40
0
40
0
40
0
40
0.096700334876266045
40
0.18580126444887304
40
0.18580126444887304
40
0.18580126444887304
40
0.18580126444887304
10
9.6848114092762767
20
0.7281317066406412
30
0
10
9.6976159268219178
20
0.7275729855255888
30
0
10
9.7222186911627251
20
0.72649945160469942
30
0
10
9.7447557509100591
20
0.71662948094252843
30
0
10
9.7555633898100265
20
0.71189634005964808
30
0
0
SPLINE
5
234
100
AcDbEntity
8
0
100
AcDbSpline
70
1064
71
3
72
9
73
5
74
0
42
0.000000001
43
0.0000000001
44
0.0000000001
40
0
40
0
40
0
40
0
40
0.086666723538198556
40
0.17589799434616132
40
0.17589799434616132
40
0.17589799434616132
40
0.17589799434616132
10
9.7555633898100265
20
0.71189634005964808
30
0
10
9.7653084736100695
20
0.70581397149484437
30
0
10
9.7850870071138463
20
0.69346925154069072
30
0
10
9.7988338453354356
20
0.67462810366772685
30
0
10
9.8058074771193766
20
0.66507018019944264
30
0
0
SPLINE
5
235
100
AcDbEntity
8
0
100
AcDbSpline
70
1064
71
3
72
9
73
5
74
0
42
0.000000001
43
0.0000000001
44
0.0000000001
40
0
40
0
40
0
40
0
40
0.097174784443340698
40
0.20575474112709519
40
0.20575474112709519
40
0.20575474112709519
40
0.20575474112709519
10
9.8058074771193766
20
0.66507018019944264
30
0
10
9.8121506930937858
20
0.65395143994145477
30
0
10
9.8255816131437204
20
0.63040897945083674
30
0
10
9.8329975216275844
20
0.60432393943849361
30
0
10
9.8369110111420301
20
0.59055846069851792
30
0
0
SPLINE
5
236
100
AcDbEntity
8
0
100
AcDbSpline
70
1064
71
3
72
9
73
5
74
0
42
0.000000001
43
0.0000000001
44
0.0000000001
40
0
40
0
40
0
40
0
40
0.13273495802010904
40
0.30272053109015118
40
0.30272053109015118
40
0.30272053109015118
40
0.30272053109015118
10
9.8369110111420301
20
0.59055846069851792
30
0
10
9.840188142412563
20
0.57341590563152711
30
0
10
9.8476620960225638
20
0.53431992480230639
30
0
10
9.8480003713685171
20
0.49449089215838976
30
0
10
9.8481903219091365
20
0.47212583844227651
30
0
0
SPLINE
5
237
100
AcDbEntity
8
0
100
AcDbSpline
70
1064
71
3
72
9
73
5
74
0
42
0.000000001
43
0.0000000001
44
0.0000000001
40
0
40
0
40
0
40
0
40
0.2027173692741415
40
0.36561430383052551
40
0.36561430383052551
40
0.36561430383052551
40
0.36561430383052551
10
9.8481903219091365
20
0.47212583844227651
30
0
10
9.847824629187194
20
0.44540986085531475
30
0
10
9.8471650779586639
20
0.39722581238633675
30
0
10
9.8353425536000714
20
0.35055935920207126
30
0
10
9.8300751093109522
20
0.32976744244528167
30
0
0
SPLINE
5
238
100
AcDbEntity
8
0
100
AcDbSpline
70
1064
71
3
72
9
73
5
74
0
42
0.000000001
43
0.0000000001
44
0.0000000001
40
0
40
0
40
0
40
0
40
0.13481104505798444
40
0.25589864982411925
40
0.25589864982411925
40
0.25589864982411925
40
0.25589864982411925
10
9.8300751093109522
20
0.32976744244528167
30
0
10
9.8236433020520106
20
0.31303499846356664
30
0
10
9.811434430050582
20
0.28127343307152497
30
0
10
9.7873137995439787
20
0.25734824597568451
30
0
10
9.7759002599434339
20
0.24602718741985355
30
0
0
SPLINE
5
239
100
AcDbEntity
8
0
100
AcDbSpline
70
1064
71
3
72
9
73
5
74
0
42
0.000000001
43
0.0000000001
44
0.0000000001
40
0
40
0
40
0
40
0
40
0.11795254271713053
40
0.24705360881040372
40
0.24705360881040372
40
0.24705360881040372
40
0.24705360881040372
10
9.7759002599434339
20
0.24602718741985355
30
0
10
9.7627088021323303
20
0.23740874460067804
30
0
10
9.7350790691682931
20
0.21935726939077413
30
0
10
9.7020639091521179
20
0.21745554992350469
30
0
10
9.6848114092762767
20
0.21646178176194264
30
0
0
SPLINE
5
240
100
AcDbEntity
8
0
100
AcDbSpline
70
1064
71
3
72
9
73
5
74
0
42
0.000000001
43
0.0000000001
44
0.0000000001
40
0
40
0
40
0
40
0
40
0.16757945002708399
40
0.3268586531459412
40
0.3268586531459412
40
0.3268586531459412
40
0.3268586531459412
10
9.6848114092762767
20
0.21646178176194264
30
0
10
9.6621396105793362
20
0.21839801761092859
30
0
10
9.6179189523465958
20
0.22217458712270452
30
0
10
9.5863679519917095
20
0.25326461553230589
30
0
10
9.5709930547822868
20
0.26841487972865502
30
0
0
SPLINE
5
241
100
AcDbEntity
8
0
100
AcDbSpline
70
1064
71
3
72
9
73
5
74
0
42
0.000000001
43
0.0000000001
44
0.0000000001
40
0
40
0
40
0
40
0
40
0.22914735842751455
40
0.53938006156382734
40
0.53938006156382734
40
0.53938006156382734
40
0.53938006156382734
10
9.5709930547822868
20
0.26841487972865502
30
0
10
9.5566190412478473
20
0.29528116720754838
30
0
10
9.5227846721399967
20
0.35852055994504278
30
0
10
9.5219262381181764
20
0.43064332534563143
30
0
10
9.521432496643417
20
0.47212583844227662
30
0
0
SPLINE
5
242
100
AcDbEntity
8
0
100
AcDbSpline
70
1064
71
3
72
9
73
5
74
0
42
0.000000001
43
0.0000000001
44
0.0000000001
40
0
40
0
40
0
40
0
40
0.26163533778884535
40
0.42720545659686515
40
0.42720545659686515
40
0.42720545659686515
40
0.42720545659686515
10
9.5846649053772364
20
0.47212583844227651
30
0
10
9.5843148547002119
20
0.43730331971979647
30
0
10
9.5837432822185509
20
0.38044414260551801
30
0
10
9.6052222333643762
20
0.32815710036180856
30
0
10
9.6135467349318766
20
0.30789244394713106
30
0
0
SPLINE
5
243
100
AcDbEntity
8
0
100
AcDbSpline
70
1064
71
3
72
9
73
5
74
0
42
0.000000001
43
0.0000000001
44
0.0000000001
40
0
40
0
40
0
40
0
40
0.11299245061056705
40
0.21541018868406658
40
0.21541018868406658
40
0.21541018868406658
40
0.21541018868406658
10
9.6135467349318766
20
0.30789244394713106
30
0
10
9.6233568371913805
20
0.29598802180467348
30
0
10
9.6420589360246289
20
0.27329328595263258
30
0
10
9.6710347356776047
20
0.26906031330708641
30
0
10
9.6848114092762767
20
0.26704772752211386
30
0
0
SPLINE
5
244
100
AcDbEntity
8
0
100
AcDbSpline
70
1064
71
3
72
9
73
5
74
0
42
0.000000001
43
0.0000000001
44
0.0000000001
40
0
40
0
40
0
40
0
40
0.10244526351863541
40
0.21566214878376183
40
0.21566214878376183
40
0.21566214878376183
40
0.21566214878376183
10
9.6848114092762767
20
0.26704772752211386
30
0
10
9.6985913541264797
20
0.26907376872934718
30
0
10
9.7276001380804189
20
0.27333887953358538
30
0
10
9.746273215315707
20
0.29610940613050324
30
0
10
9.7560760836206786
20
0.3080633262397508
30
0
0
SPLINE
5
245
100
AcDbEntity
8
0
100
AcDbSpline
70
1064
71
3
72
9
73
5
74
0
42
0.000000001
43
0.0000000001
44
0.0000000001
40
0
40
0
40
0
40
0
40
0.16567243843640653
40
0.4267665836700143
40
0.4267665836700143
40
0.4267665836700143
40
0.4267665836700143
10
9.7560760836206786
20
0.3080633262397508
30
0
10
9.7644016095960655
20
0.32834204824353957
30
0
10
9.7858478822006383
20
0.38057934849956754
30
0
10
9.7852956932852155
20
0.4373771581697069
30
0
10
9.7849578662425269
20
0.47212583844227651
30
0
0
SPLINE
5
246
100
AcDbEntity
8
0
100
AcDbSpline
70
1064
71
3
72
9
73
5
74
0
42
0.000000001
43
0.0000000001
44
0.0000000001
40
0
40
0
40
0
40
0
40
0.26217663807648212
40
0.42764444510478666
40
0.42764444510478666
40
0.42764444510478666
40
0.42764444510478666
10
9.7849578662425269
20
0.47212583844227651
30
0
10
9.78532020833687
20
0.50702221965134098
30
0
10
9.7859112357640647
20
0.56394278926350472
30
0
10
9.7643995623209872
20
0.61627957153955515
30
0
10
9.7560760836206786
20
0.63653016216283309
30
0
0
SPLINE
5
247
100
AcDbEntity
8
0
100
AcDbSpline
70
1064
71
3
72
9
73
5
74
0
42
0.000000001
43
0.0000000001
44
0.0000000001
40
0
40
0
40
0
40
0
40
0.11308428458246575
40
0.2167351331342463
40
0.2167351331342463
40
0.2167351331342463
40
0.2167351331342463
10
9.7560760836206786
20
0.63653016216283309
30
0
10
9.7461962625207281
20
0.64838663671947061
30
0
10
9.727260790192755
20
0.67111052449064623
30
0
10
9.6980821503129668
20
0.67523261261660483
30
0
10
9.6841278331730063
20
0.67720394936243911
30
0
0
SPLINE
5
248
100
AcDbEntity
8
0
100
AcDbSpline
70
1064
71
3
72
9
73
5
74
0
42
0.000000001
43
0.0000000001
44
0.0000000001
40
0
40
0
40
0
40
0
40
0.099446863277597566
40
0.2010027510297307
40
0.2010027510297307
40
0.2010027510297307
40
0.2010027510297307
10
9.6841278331730063
20
0.67720394936243911
30
0
10
9.6706691213253659
20
0.67564680563078894
30
0
10
9.6434662713054458
20
0.67249949496160588
30
0
10
9.6255195362357036
20
0.65178248201434974
30
0
10
9.6164520155031603
20
0.64131528875130905
30
0
0
SPLINE
5
249
100
AcDbEntity
8
0
100
AcDbSpline
70
1064
71
3
72
9
73
5
74
0
42
0.000000001
43
0.0000000001
44
0.0000000001
40
0
40
0
40
0
40
0
40
0.17632624402126421
40
0.44123529859961885
40
0.44123529859961885
40
0.44123529859961885
40
0.44123529859961885
10
9.6164520155031603
20
0.64131528875130905
30
0
10
9.6072696997855456
20
0.61985046807480626
30
0
10
9.584292054909211
20
0.56613732620443413
30
0
10
9.5845250310519088
20
0.50739411500711218
30
0
10
9.5846649053772364
20
0.47212583844227651
30
0
0
LINE
5
250
100
AcDbEntity
8
0
100
AcDbLine
10
8.3444970447339681
20
0.37167706360305219
30
0
11
8.4036279059158794
21
0.37714581322758989
31
0
0
SPLINE
5
251
100
AcDbEntity
8
0
100
AcDbSpline
70
1064
71
3
72
9
73
5
74
0
42
0.000000001
43
0.0000000001
44
0.0000000001
40
0
40
0
40
0
40
0
40
0.095504103706992333
40
0.17243386515176035
40
0.17243386515176035
40
0.17243386515176035
40
0.17243386515176035
10
8.4036279059158794
20
0.37714581322758989
30
0
10
8.4062465797196904
20
0.36464408207052457
30
0
10
8.4109746283378701
20
0.34207204860990259
30
0
10
8.42574789300288
20
0.32449126054164568
30
0
10
8.4323388473113017
20
0.31664775583964466
30
0
0
SPLINE
5
252
100
AcDbEntity
8
0
100
AcDbSpline
70
1064
71
3
72
9
73
5
74
0
42
0.000000001
43
0.0000000001
44
0.0000000001
40
0
40
0
40
0
40
0
40
0.071099995137692051
40
0.14863985817945774
40
0.14863985817945774
40
0.14863985817945774
40
0.14863985817945774
10
8.4323388473113017
20
0.31664775583964466
30
0
10
8.4401224135645201
20
0.31116759996821425
30
0
10
8.4563945410346921
20
0.2997109241983601
30
0
10
8.476300400352212
20
0.29848729092184129
30
0
10
8.4866845437718457
20
0.29784896713818915
30
0
0
SPLINE
5
253
100
AcDbEntity
8
0
100
AcDbSpline
70
1064
71
3
72
9
73
5
74
0
42
0.000000001
43
0.0000000001
44
0.0000000001
40
0
40
0
40
0
40
0
40
0.068109462961039063
40
0.13181991709267532
40
0.13181991709267532
40
0.13181991709267532
40
0.13181991709267532
10
8.4866845437718457
20
0.29784896713818915
30
0
10
8.4957212786426446
20
0.29831415293071123
30
0
10
8.5132110897447948
20
0.2992144794042591
30
0
10
8.528855047208717
20
0.30705014985982176
30
0
10
8.5364159959365331
20
0.3108372416298672
30
0
0
SPLINE
5
254
100
AcDbEntity
8
0
100
AcDbSpline
70
1064
71
3
72
9
73
5
74
0
42
0.000000001
43
0.0000000001
44
0.0000000001
40
0
40
0
40
0
40
0
40
0.062627701386822693
40
0.12609822258802111
40
0.12609822258802111
40
0.12609822258802111
40
0.12609822258802111
10
8.5364159959365331
20
0.3108372416298672
30
0
10
8.5432313318910982
20
0.31555370965973556
30
0
10
8.5569537220025129
20
0.32505011815453549
30
0
10
8.5665965401201074
20
0.33867277706446086
30
0
10
8.5714501746853777
20
0.34552963232707612
30
0
0
SPLINE
5
255
100
AcDbEntity
8
0
100
AcDbSpline
70
1064
71
3
72
9
73
5
74
0
42
0.000000001
43
0.0000000001
44
0.0000000001
40
0
40
0
40
0
40
0
40
0.072216630215499789
40
0.16032488555342628
40
0.16032488555342628
40
0.16032488555342628
40
0.16032488555342628
10
8.5714501746853777
20
0.34552963232707612
30
0
10
8.5759439697604218
20
0.35390923839542832
30
0
10
8.585920441647259
20
0.37251242411431867
30
0
10
8.5913607701166814
20
0.39292809795306138
30
0
10
8.5943505608048287
20
0.40414774983224727
30
0
0
SPLINE
5
256
100
AcDbEntity
8
0
100
AcDbSpline
70
1064
71
3
72
9
73
5
74
0
42
0.000000001
43
0.0000000001
44
0.0000000001
40
0
40
0
40
0
40
0
40
0.096249184303660085
40
0.19279336493240573
40
0.19279336493240573
40
0.19279336493240573
40
0.19279336493240573
10
8.5943505608048287
20
0.40414774983224727
30
0
10
8.5970422112876452
20
0.41651915751565205
30
0
10
8.6024337619543747
20
0.44129989029266253
30
0
10
8.6031969133232273
20
0.46664909593039228
30
0
10
8.6035790728629369
20
0.47934309236923361
30
0
0
SPLINE
5
257
100
AcDbEntity
8
0
100
AcDbSpline
70
1064
71
3
72
9
73
5
74
0
42
0.000000001
43
0.0000000001
44
0.0000000001
40
0
40
0
40
0
40
0
40
0.013024231003698948
40
0.031267365501700783
40
0.031267365501700783
40
0.031267365501700783
40
0.031267365501700783
10
8.6035790728629369
20
0.47934309236923361
30
0
10
8.6035573662719003
20
0.48105224912484407
30
0
10
8.6035052551019202
20
0.48515543410077028
30
0
10
8.6033360238273335
20
0.48925555202644261
30
0
10
8.6032372848113017
20
0.49164779075764115
30
0
0
SPLINE
5
258
100
AcDbEntity
8
0
100
AcDbSpline
70
1064
71
3
72
9
73
5
74
0
42
0.000000001
43
0.0000000001
44
0.0000000001
40
0
40
0
40
0
40
0
40
0.087441532506428776
40
0.17762527154215058
40
0.17762527154215058
40
0.17762527154215058
40
0.17762527154215058
10
8.6032372848113017
20
0.49164779075764115
30
0
10
8.5964424008527587
20
0.48226706856358076
30
0
10
8.5826395422609902
20
0.46321144042875861
30
0
10
8.5628631144816154
20
0.45044758067185564
30
0
10
8.5528222448101463
20
0.44396712556875417
30
0
0
SPLINE
5
259
100
AcDbEntity
8
0
100
AcDbSpline
70
1064
71
3
72
9
73
5
74
0
42
0.000000001
43
0.0000000001
44
0.0000000001
40
0
40
0
40
0
40
0
40
0.091433385941233722
40
0.18343489349707798
40
0.18343489349707798
40
0.18343489349707798
40
0.18343489349707798
10
8.5528222448101463
20
0.44396712556875417
30
0
10
8.5419297216314867
20
0.43863368210878506
30
0
10
8.5200769945491039
20
0.42793365582209664
30
0
10
8.4957896513150288
20
0.42643342324231637
30
0
10
8.4836083691747426
20
0.42568098374515839
30
0
0
SPLINE
5
260
100
AcDbEntity
8
0
100
AcDbSpline
70
1064
71
3
72
9
73
5
74
0
42
0.000000001
43
0.0000000001
44
0.0000000001
40
0
40
0
40
0
40
0
40
0.14863871067345888
40
0.2975003553780371
40
0.2975003553780371
40
0.2975003553780371
40
0.2975003553780371
10
8.4836083691747426
20
0.42568098374515839
30
0
10
8.4636648497655251
20
0.42756650126806084
30
0
10
8.4237478988928451
20
0.43134036428526157
30
0
10
8.3934801526836527
20
0.4576390056569255
30
0
10
8.3783349389023929
20
0.47079817988079192
30
0
0
SPLINE
5
261
100
AcDbEntity
8
0
100
AcDbSpline
70
1064
71
3
72
9
73
5
74
0
42
0.000000001
43
0.0000000001
44
0.0000000001
40
0
40
0
40
0
40
0
40
0.15612298667562577
40
0.32760954550111532
40
0.32760954550111532
40
0.32760954550111532
40
0.32760954550111532
10
8.3783349389023929
20
0.47079817988079192
30
0
10
8.3657814420962566
20
0.48756390576404496
30
0
10
8.3394390983409927
20
0.52274521989058498
30
0
10
8.3367015131922226
20
0.56672327257051747
30
0
10
8.3352685297425602
20
0.58974349594768405
30
0
0
SPLINE
5
262
100
AcDbEntity
8
0
100
AcDbSpline
70
1064
71
3
72
9
73
5
74
0
42
0.000000001
43
0.0000000001
44
0.0000000001
40
0
40
0
40
0
40
0
40
0.17703375146337455
40
0.33854949188395844
40
0.33854949188395844
40
0.33854949188395844
40
0.33854949188395844
10
8.3352685297425602
20
0.58974349594768405
30
0
10
8.3367731842341506
20
0.61351668384283575
30
0
10
8.3396506017287138
20
0.65897920506173757
30
0
10
8.3671130099058892
20
0.69517852211716491
30
0
10
8.3802148201191784
20
0.71244855098175075
30
0
0
SPLINE
5
263
100
AcDbEntity
8
0
100
AcDbSpline
70
1064
71
3
72
9
73
5
74
0
42
0.000000001
43
0.0000000001
44
0.0000000001
40
0
40
0
40
0
40
0
40
0.15613690719206971
40
0.3163429123238447
40
0.3163429123238447
40
0.3163429123238447
40
0.3163429123238447
10
8.3802148201191784
20
0.71244855098175075
30
0
10
8.396285689766998
20
0.72600586681984758
30
0
10
8.4288462534376656
20
0.7534738169198324
30
0
10
8.4713245479597781
20
0.75709769856120301
30
0
10
8.4928368929660483
20
0.75893294625671659
30
0
0
SPLINE
5
264
100
AcDbEntity
8
0
100
AcDbSpline
70
1064
71
3
72
9
73
5
74
0
42
0.000000001
43
0.0000000001
44
0.0000000001
40
0
40
0
40
0
40
0
40
0.11999937456235682
40
0.23924623158709152
40
0.23924623158709152
40
0.23924623158709152
40
0.23924623158709152
10
8.4928368929660483
20
0.75893294625671659
30
0
10
8.5087589159835755
20
0.7578502100252823
30
0
10
8.5405031148186037
20
0.75569152741449219
30
0
10
8.568341404281858
20
0.74029075260488919
30
0
10
8.5822167681754369
20
0.73261458575532945
30
0
0
SPLINE
5
265
100
AcDbEntity
8
0
100
AcDbSpline
70
1064
71
3
72
9
73
5
74
0
42
0.000000001
43
0.0000000001
44
0.0000000001
40
0
40
0
40
0
40
0
40
0.1215024898042069
40
0.24923059540892017
40
0.24923059540892017
40
0.24923059540892017
40
0.24923059540892017
10
8.5822167681754369
20
0.73261458575532945
30
0
10
8.5949882306440255
20
0.72271495195123414
30
0
10
8.6211855472621313
20
0.70240844110276623
30
0
10
8.6360978249254714
20
0.67277632556054257
30
0
10
8.6437402131846834
20
0.65759017244375417
30
0
0
SPLINE
5
266
100
AcDbEntity
8
0
100
AcDbSpline
70
1064
71
3
72
9
73
5
74
0
42
0.000000001
43
0.0000000001
44
0.0000000001
40
0
40
0
40
0
40
0
40
0.15659275656125621
40
0.36375478413689399
40
0.36375478413689399
40
0.36375478413689399
40
0.36375478413689399
10
8.6437402131846834
20
0.65759017244375417
30
0
10
8.6498414731906781
20
0.63786110645834171
30
0
10
8.6640143031809043
20
0.59203176992744755
30
0
10
8.6644898676056936
20
0.54397039251557966
30
0
10
8.6647607063541532
20
0.51659895211969598
30
0
0
SPLINE
5
267
100
AcDbEntity
8
0
100
AcDbSpline
70
1064
71
3
72
9
73
5
74
0
42
0.000000001
43
0.0000000001
44
0.0000000001
40
0
40
0
40
0
40
0
40
0.21950249993339957
40
0.39349706667979745
40
0.39349706667979745
40
0.39349706667979745
40
0.39349706667979745
10
8.6647607063541532
20
0.51659895211969598
30
0
10
8.664372678488661
20
0.48764779143323989
30
0
10
8.6636770698878127
20
0.43574771370951226
30
0
10
8.6499714163441883
20
0.38575179184101632
30
0
10
8.6439111189436986
20
0.363644844925261
30
0
0
SPLINE
5
268
100
AcDbEntity
8
0
100
AcDbSpline
70
1064
71
3
72
9
73
5
74
0
42
0.000000001
43
0.0000000001
44
0.0000000001
40
0
40
0
40
0
40
0
40
0.14332834449632031
40
0.27378108222132513
40
0.27378108222132513
40
0.27378108222132513
40
0.27378108222132513
10
8.6439111189436986
20
0.363644844925261
30
0
10
8.6364646323304175
20
0.34606865925495306
30
0
10
8.6222405988993813
20
0.31249520837159761
30
0
10
8.5949016127789744
20
0.2884544371011365
30
0
10
8.5818749801238017
20
0.27699935626133981
30
0
0
SPLINE
5
269
100
AcDbEntity
8
0
100
AcDbSpline
70
1064
71
3
72
9
73
5
74
0
42
0.000000001
43
0.0000000001
44
0.0000000001
40
0
40
0
40
0
40
0
40
0.12695944841645898
40
0.25994222690036523
40
0.25994222690036523
40
0.25994222690036523
40
0.25994222690036523
10
8.5818749801238017
20
0.27699935626133981
30
0
10
8.5673503350092961
20
0.26832754743195614
30
0
10
8.5376119528479535
20
0.25057251362801269
30
0
10
8.5030161045863846
20
0.24838309637641326
30
0
10
8.4853173563657105
20
0.24726302137801789
30
0
0
SPLINE
5
270
100
AcDbEntity
8
0
100
AcDbSpline
70
1064
71
3
72
9
73
5
74
0
42
0.000000001
43
0.0000000001
44
0.0000000001
40
0
40
0
40
0
40
0
40
0.1372250873548235
40
0.26211008811489561
40
0.26211008811489561
40
0.26211008811489561
40
0.26211008811489561
10
8.4853173563657105
20
0.24726302137801789
30
0
10
8.466943611386867
20
0.24834799894482373
30
0
10
8.4318483965960578
20
0.25042038651709619
30
0
10
8.4030118853836555
20
0.27038994083539786
30
0
10
8.3892724381514689
20
0.27990463683262418
30
0
0
SPLINE
5
271
100
AcDbEntity
8
0
100
AcDbSpline
70
1064
71
3
72
9
73
5
74
0
42
0.000000001
43
0.0000000001
44
0.0000000001
40
0
40
0
40
0
40
0
40
0.12523489349394268
40
0.26390954818424606
40
0.26390954818424606
40
0.26390954818424606
40
0.26390954818424606
10
8.3892724381514689
20
0.27990463683262418
30
0
10
8.3780413106362879
20
0.29234756119236438
30
0
10
8.3543737711396027
20
0.31856874008472019
30
0
10
8.3478991941824372
20
0.35338330450247329
30
0
10
8.3444970447339681
20
0.37167706360305219
30
0
0
SPLINE
5
272
100
AcDbEntity
8
0
100
AcDbSpline
70
1064
71
3
72
9
73
5
74
0
42
0.000000001
43
0.0000000001
44
0.0000000001
40
0
40
0
40
0
40
0
40
0.12199600656985647
40
0.2293030565582761
40
0.2293030565582761
40
0.2293030565582761
40
0.2293030565582761
10
8.5964013360474318
20
0.59281965881158805
30
0
10
8.5955583741291033
20
0.60918217425167875
30
0
10
8.5939739473116212
20
0.63993707278392176
30
0
10
8.5764185247215643
20
0.6651178450584514
30
0
10
8.5682031060624571
20
0.67690170188865151
30
0
0
SPLINE
5
273
100
AcDbEntity
8
0
100
AcDbSpline
70
1064
71
3
72
9
73
5
74
0
42
0.000000001
43
0.0000000001
44
0.0000000001
40
0
40
0
40
0
40
0
40
0.098666856276278136
40
0.19416766867057417
40
0.19416766867057417
40
0.19416766867057417
40
0.19416766867057417
10
8.5682031060624571
20
0.67690170188865151
30
0
10
8.5584376594704548
20
0.68597285172602074
30
0
10
8.5392201220941057
20
0.70382407434075112
30
0
10
8.513169393949628
20
0.70662671713666203
30
0
10
8.5003564178331885
20
0.7080051889785145
30
0
0
SPLINE
5
274
100
AcDbEntity
8
0
100
AcDbSpline
70
1064
71
3
72
9
73
5
74
0
42
0.000000001
43
0.0000000001
44
0.0000000001
40
0
40
0
40
0
40
0
40
0.099745637438033163
40
0.20522955164463524
40
0.20522955164463524
40
0.20522955164463524
40
0.20522955164463524
10
8.5003564178331885
20
0.7080051889785145
30
0
10
8.486992654624542
20
0.70645979449215734
30
0
10
8.4594963229348519
20
0.70328010036522182
30
0
10
8.4393009127399079
20
0.68427655835770296
30
0
10
8.4289208729293659
20
0.67450911512801792
30
0
0
SPLINE
5
275
100
AcDbEntity
8
0
100
AcDbSpline
70
1064
71
3
72
9
73
5
74
0
42
0.000000001
43
0.0000000001
44
0.0000000001
40
0
40
0
40
0
40
0
40
0.11356635098189297
40
0.23792107949758551
40
0.23792107949758551
40
0.23792107949758551
40
0.23792107949758551
10
8.4289208729293659
20
0.67450911512801792
30
0
10
8.4200533801787945
20
0.66214649844227258
30
0
10
8.4014760161144206
20
0.63624686283844478
30
0
10
8.3995221707954659
20
0.60435939136484373
30
0
10
8.3985009502095771
20
0.58769269723868578
30
0
0
SPLINE
5
276
100
AcDbEntity
8
0
100
AcDbSpline
70
1064
71
3
72
9
73
5
74
0
42
0.000000001
43
0.0000000001
44
0.0000000001
40
0
40
0
40
0
40
0
40
0.11166469692415772
40
0.21490610281931899
40
0.21490610281931899
40
0.21490610281931899
40
0.21490610281931899
10
8.3985009502095771
20
0.58769269723868578
30
0
10
8.3995041420400938
20
0.57270355887336644
30
0
10
8.4014348511416728
20
0.54385596962232374
30
0
10
8.4189624777466161
20
0.52094188850089473
30
0
10
8.4273827914974149
20
0.5099339091148416
30
0
0
SPLINE
5
277
100
AcDbEntity
8
0
100
AcDbSpline
70
1064
71
3
72
9
73
5
74
0
42
0.000000001
43
0.0000000001
44
0.0000000001
40
0
40
0
40
0
40
0
40
0.099794612670165192
40
0.20067746534883774
40
0.20067746534883774
40
0.20067746534883774
40
0.20067746534883774
10
8.4273827914974149
20
0.5099339091148416
30
0
10
8.4376105328882556
20
0.50121103589747973
30
0
10
8.4581775471151808
20
0.48367016829969617
30
0
10
8.4851087882754594
20
0.48124558241005144
30
0
10
8.4986474306422224
20
0.48002671540529529
30
0
0
SPLINE
5
278
100
AcDbEntity
8
0
100
AcDbSpline
70
1064
71
3
72
9
73
5
74
0
42
0.000000001
43
0.0000000001
44
0.0000000001
40
0
40
0
40
0
40
0
40
0.10066974294012886
40
0.19851363450918655
40
0.19851363450918655
40
0.19851363450918655
40
0.19851363450918655
10
8.4986474306422224
20
0.48002671540529529
30
0
10
8.5121877983144074
20
0.48120036534659372
30
0
10
8.5388884485862029
20
0.48351472027275272
30
0
10
8.5589826181371897
20
0.50121148427004336
30
0
10
8.5688866821657275
20
0.5099339091148416
30
0
0
SPLINE
5
279
100
AcDbEntity
8
0
100
AcDbSpline
70
1064
71
3
72
9
73
5
74
0
42
0.000000001
43
0.0000000001
44
0.0000000001
40
0
40
0
40
0
40
0
40
0.10468231058759975
40
0.225863644199985
40
0.225863644199985
40
0.225863644199985
40
0.225863644199985
10
8.5688866821657275
20
0.5099339091148416
30
0
10
8.5769003901859673
20
0.52143103050871209
30
0
10
8.5941908501198938
20
0.54623733943763264
30
0
10
8.5956294774995321
20
0.57655402194780991
30
0
10
8.5964013360474318
20
0.59281965881158805
30
0
0
SPLINE
5
280
100
AcDbEntity
8
0
100
AcDbSpline
70
1064
71
3
72
9
73
5
74
0
42
0.000000001
43
0.0000000001
44
0.0000000001
40
0
40
0
40
0
40
0
40
0.09502853427002271
40
0.17836689195581079
40
0.17836689195581079
40
0.17836689195581079
40
0.17836689195581079
10
7.4306298542537359
20
0.52753645136877136
30
0
10
7.4189329356305818
20
0.53238716463812819
30
0
10
7.3969780245473116
20
0.54149186835970231
30
0
10
7.3812433080334428
20
0.55923606531134196
30
0
10
7.3738915768991573
20
0.56752668593150257
30
0
0
SPLINE
5
281
100
AcDbEntity
8
0
100
AcDbSpline
70
1064
71
3
72
9
73
5
74
0
42
0.000000001
43
0.0000000001
44
0.0000000001
40
0
40
0
40
0
40
0
40
0.080568718311899892
40
0.16688233048914197
40
0.16688233048914197
40
0.16688233048914197
40
0.16688233048914197
10
7.3738915768991573
20
0.56752668593150257
30
0
10
7.3685100378477113
20
0.57680780096113871
30
0
10
7.3573632330164989
20
0.5960318141778751
30
0
10
7.3560920292689724
20
0.61824486498862607
30
0
10
7.3554345469163422
20
0.62973373051041526
30
0
0
SPLINE
5
282
100
AcDbEntity
8
0
100
AcDbSpline
70
1064
71
3
72
9
73
5
74
0
42
0.000000001
43
0.0000000001
44
0.0000000001
40
0
40
0
40
0
40
0
40
0.13025103513380012
40
0.25978541037287806
40
0.25978541037287806
40
0.25978541037287806
40
0.25978541037287806
10
7.3554345469163422
20
0.62973373051041526
30
0
10
7.3570541756110881
20
0.64721934837889539
30
0
10
7.3602845215709802
20
0.68209437573603049
30
0
10
7.3832767749856991
20
0.70850713753530581
30
0
10
7.394741187776007
20
0.72167708650625428
30
0
0
SPLINE
5
283
100
AcDbEntity
8
0
100
AcDbSpline
70
1064
71
3
72
9
73
5
74
0
42
0.000000001
43
0.0000000001
44
0.0000000001
40
0
40
0
40
0
40
0
40
0.13627427286317964
40
0.28746092596232653
40
0.28746092596232653
40
0.28746092596232653
40
0.28746092596232653
10
7.394741187776007
20
0.72167708650625428
30
0
10
7.409440061300046
20
0.73253543592523773
30
0
10
7.4404462938415756
20
0.75544035490093719
30
0
10
7.4790355015255496
20
0.75772917078198787
30
0
10
7.4993310360784875
20
0.75893294625671659
30
0
0
SPLINE
5
284
100
AcDbEntity
8
0
100
AcDbSpline
70
1064
71
3
72
9
73
5
74
0
42
0.000000001
43
0.0000000001
44
0.0000000001
40
0
40
0
40
0
40
0
40
0.15234379445195517
40
0.29076414037316167
40
0.29076414037316167
40
0.29076414037316167
40
0.29076414037316167
10
7.4993310360784875
20
0.75893294625671659
30
0
10
7.5197815077861847
20
0.75767211733331707
30
0
10
7.5588133820263259
20
0.75526569284199674
30
0
10
7.5900675135696272
20
0.73193115472447934
30
0
10
7.6049462661356708
20
0.72082258117757259
30
0
0
SPLINE
5
285
100
AcDbEntity
8
0
100
AcDbSpline
70
1064
71
3
72
9
73
5
74
0
42
0.000000001
43
0.0000000001
44
0.0000000001
40
0
40
0
40
0
40
0
40
0.13161550673133687
40
0.26248259704370014
40
0.26248259704370014
40
0.26248259704370014
40
0.26248259704370014
10
7.6049462661356708
20
0.72082258117757259
30
0
10
7.6166100485625812
20
0.70745453614486142
30
0
10
7.6398712886611175
20
0.68079446192772708
30
0
10
7.6432513091692309
20
0.64558118165625122
30
0
10
7.6449365006984014
20
0.62802474331944769
30
0
0
SPLINE
5
286
100
AcDbEntity
8
0
100
AcDbSpline
70
1064
71
3
72
9
73
5
74
0
42
0.000000001
43
0.0000000001
44
0.0000000001
40
0
40
0
40
0
40
0
40
0.083611388009891027
40
0.16296427683309239
40
0.16296427683309239
40
0.16296427683309239
40
0.16296427683309239
10
7.6449365006984014
20
0.62802474331944769
30
0
10
7.6442574242655921
20
0.61689999739606893
30
0
10
7.6429338581531114
20
0.59521711163724333
30
0
10
7.6319828028408958
20
0.57647969409903599
30
0
10
7.626650358874806
20
0.56735580363888261
30
0
0
SPLINE
5
287
100
AcDbEntity
8
0
100
AcDbSpline
70
1064
71
3
72
9
73
5
74
0
42
0.000000001
43
0.0000000001
44
0.0000000001
40
0
40
0
40
0
40
0
40
0.082414561359497235
40
0.17556100989928231
40
0.17556100989928231
40
0.17556100989928231
40
0.17556100989928231
10
7.626650358874806
20
0.56735580363888261
30
0
10
7.6194231748025336
20
0.55912239193637958
30
0
10
7.6040276947620402
20
0.54158342734609555
30
0
10
7.5825197241106395
20
0.53240578373718461
30
0
10
7.5711083573007478
20
0.52753645136877136
30
0
0
SPLINE
5
288
100
AcDbEntity
8
0
100
AcDbSpline
70
1064
71
3
72
9
73
5
74
0
42
0.000000001
43
0.0000000001
44
0.0000000001
40
0
40
0
40
0
40
0
40
0.1146420608383697
40
0.21970118029700453
40
0.21970118029700453
40
0.21970118029700453
40
0.21970118029700453
10
7.5711083573007478
20
0.52753645136877136
30
0
10
7.5853758278552217
20
0.52201705543238963
30
0
10
7.612718149667546
20
0.5114396304202975
30
0
10
7.6320860605560501
20
0.48949503503290032
30
0
10
7.6413476205574513
20
0.47900132778399396
30
0
0
SPLINE
5
289
100
AcDbEntity
8
0
100
AcDbSpline
70
1064
71
3
72
9
73
5
74
0
42
0.000000001
43
0.0000000001
44
0.0000000001
40
0
40
0
40
0
40
0
40
0.10400607088156864
40
0.21488965611845168
40
0.21488965611845168
40
0.21488965611845168
40
0.21488965611845168
10
7.6413476205574513
20
0.47900132778399396
30
0
10
7.6483738227854889
20
0.46706111513081178
30
0
10
7.662890842492164
20
0.44239113029939553
30
0
10
7.664575178552993
20
0.41378278663904283
30
0
10
7.6654443000572199
20
0.39902081172574044
30
0
0
SPLINE
5
290
100
AcDbEntity
8
0
100
AcDbSpline
70
1064
71
3
72
9
73
5
74
0
42
0.000000001
43
0.0000000001
44
0.0000000001
40
0
40
0
40
0
40
0
40
0.15294124387382094
40
0.30430844014627845
40
0.30430844014627845
40
0.30430844014627845
40
0.30430844014627845
10
7.6654443000572199
20
0.39902081172574044
30
0
10
7.6635896681555424
20
0.37849418663263662
30
0
10
7.6598994919365593
20
0.33765219329365698
30
0
10
7.633244082500994
20
0.30650570786609088
30
0
10
7.6199853158699513
20
0.29101301837431925
30
0
0
SPLINE
5
291
100
AcDbEntity
8
0
100
AcDbSpline
70
1064
71
3
72
9
73
5
74
0
42
0.000000001
43
0.0000000001
44
0.0000000001
40
0
40
0
40
0
40
0
40
0.15754721240936459
40
0.32996032875249631
40
0.32996032875249631
40
0.32996032875249631
40
0.32996032875249631
10
7.6199853158699513
20
0.29101301837431925
30
0
10
7.6031224775784105
20
0.27825968395558459
30
0
10
7.5678056504426845
20
0.25154963080299653
30
0
10
7.523504803637473
20
0.24873417336011711
30
0
10
7.5003564236997891
20
0.24726302137801789
30
0
0
SPLINE
5
292
100
AcDbEntity
8
0
100
AcDbSpline
70
1064
71
3
72
9
73
5
74
0
42
0.000000001
43
0.0000000001
44
0.0000000001
40
0
40
0
40
0
40
0
40
0.17243061911113741
40
0.3301502975774997
40
0.3301502975774997
40
0.3301502975774997
40
0.3301502975774997
10
7.5003564236997891
20
0.24726302137801789
30
0
10
7.4772034644801595
20
0.24874408546813698
30
0
10
7.4328728437611451
20
0.2515798564733373
30
0
10
7.3975851708022784
20
0.27838061818820564
30
0
10
7.3807275139298296
20
0.29118390066693917
30
0
0
SPLINE
5
293
100
AcDbEntity
8
0
100
AcDbSpline
70
1064
71
3
72
9
73
5
74
0
42
0.000000001
43
0.0000000001
44
0.0000000001
40
0
40
0
40
0
40
0
40
0.15234792591021826
40
0.30795421350866875
40
0.30795421350866875
40
0.30795421350866875
40
0.30795421350866875
10
7.3807275139298296
20
0.29118390066693917
30
0
10
7.3674690631982012
20
0.3068420604243286
30
0
10
7.3406685948425778
20
0.33849327092995524
30
0
10
7.3370812037753934
20
0.37983848521907615
30
0
10
7.3352685297425602
20
0.40072982238310362
30
0
0
SPLINE
5
294
100
AcDbEntity
8
0
100
AcDbSpline
70
1064
71
3
72
9
73
5
74
0
42
0.000000001
43
0.0000000001
44
0.0000000001
40
0
40
0
40
0
40
0
40
0.11513538475106672
40
0.22020714906188169
40
0.22020714906188169
40
0.22020714906188169
40
0.22020714906188169
10
7.3352685297425602
20
0.40072982238310362
30
0
10
7.3360987375586362
20
0.41608171608281014
30
0
10
7.3376865873469725
20
0.4454436429276511
30
0
10
7.3528253483953838
20
0.47059108923215653
30
0
10
7.3600488029453963
20
0.48259018445854879
30
0
0
SPLINE
5
295
100
AcDbEntity
8
0
100
AcDbSpline
70
1064
71
3
72
9
73
5
74
0
42
0.000000001
43
0.0000000001
44
0.0000000001
40
0
40
0
40
0
40
0
40
0.10382923095182314
40
0.21571642176636835
40
0.21571642176636835
40
0.21571642176636835
40
0.21571642176636835
10
7.3600488029453963
20
0.48259018445854879
30
0
10
7.369451713925022
20
0.49277555406254908
30
0
10
7.3889872752704946
20
0.51393675756180601
30
0
10
7.4164075715871887
20
0.52289171767975096
30
0
10
7.4306298542537359
20
0.52753645136877136
30
0
0
SPLINE
5
296
100
AcDbEntity
8
0
100
AcDbSpline
70
1064
71
3
72
9
73
5
74
0
42
0.000000001
43
0.0000000001
44
0.0000000001
40
0
40
0
40
0
40
0
40
0.083320293266661224
40
0.1620571389265866
40
0.1620571389265866
40
0.1620571389265866
40
0.1620571389265866
10
7.4183251675985256
20
0.63178450575301792
30
0
10
7.4191666940748782
20
0.62059014459715389
30
0
10
7.4208034546735506
20
0.59881722386073422
30
0
10
7.4345477716221113
20
0.5818989318560952
30
0
10
7.4412255654511759
20
0.57367903512570628
30
0
0
SPLINE
5
297
100
AcDbEntity
8
0
100
AcDbSpline
70
1064
71
3
72
9
73
5
74
0
42
0.000000001
43
0.0000000001
44
0.0000000001
40
0
40
0
40
0
40
0
40
0.079470244270056972
40
0.164891774115247
40
0.164891774115247
40
0.164891774115247
40
0.164891774115247
10
7.4412255654511759
20
0.57367903512570628
30
0
10
7.4496347920158836
20
0.56710179892979595
30
0
10
7.4670829866191344
20
0.55345477726677961
30
0
10
7.4892267321638091
20
0.55191705037674865
30
0
10
7.5006982117514243
20
0.55112043705788949
30
0
0
SPLINE
5
298
100
AcDbEntity
8
0
100
AcDbSpline
70
1064
71
3
72
9
73
5
74
0
42
0.000000001
43
0.0000000001
44
0.0000000001
40
0
40
0
40
0
40
0
40
0.083371034028682456
40
0.16184404508608091
40
0.16184404508608091
40
0.16184404508608091
40
0.16184404508608091
10
7.5006982117514243
20
0.55112043705788949
30
0
10
7.5118903035070845
20
0.55193504842773633
30
0
10
7.533616955021178
20
0.55351641299643972
30
0
10
7.550694319330038
20
0.56698004432372806
30
0
10
7.558974588137751
20
0.57350812936669093
30
0
0
SPLINE
5
299
100
AcDbEntity
8
0
100
AcDbSpline
70
1064
71
3
72
9
73
5
74
0
42
0.000000001
43
0.0000000001
44
0.0000000001
40
0
40
0
40
0
40
0
40
0.076665698831901982
40
0.15409567324259876
40
0.15409567324259876
40
0.15409567324259876
40
0.15409567324259876
10
7.558974588137751
20
0.57350812936669093
30
0
10
7.5656039647748372
20
0.58141741883423015
30
0
10
7.5789288058919908
20
0.59731484498361398
30
0
10
7.5807759272112119
20
0.6179818016153924
30
0
10
7.5817040684981878
20
0.62836653137108289
30
0
0
SPLINE
5
300
100
AcDbEntity
8
0
100
AcDbSpline
70
1064
71
3
72
9
73
5
74
0
42
0.000000001
43
0.0000000001
44
0.0000000001
40
0
40
0
40
0
40
0
40
0.080496331523170789
40
0.15968882784668426
40
0.15968882784668426
40
0.15968882784668426
40
0.15968882784668426
10
7.5817040684981878
20
0.62836653137108289
30
0
10
7.5807607776313501
20
0.63916524656783902
30
0
10
7.5788894748030931
20
0.66058776532602348
30
0
10
7.5651196745321387
20
0.67709132619361945
30
0
10
7.5582909885680847
20
0.68527573208447345
30
0
0
SPLINE
5
301
100
AcDbEntity
8
0
100
AcDbSpline
70
1064
71
3
72
9
73
5
74
0
42
0.000000001
43
0.0000000001
44
0.0000000001
40
0
40
0
40
0
40
0
40
0.07991189037499663
40
0.16250352020573713
40
0.16250352020573713
40
0.16250352020573713
40
0.16250352020573713
10
7.5582909885680847
20
0.68527573208447345
30
0
10
7.5499165747744001
20
0.69200433770242209
30
0
10
7.5328869223065729
20
0.70568718382033679
30
0
10
7.5110918516502094
20
0.70745070126620013
30
0
10
7.5000146121817579
20
0.70834700049654531
30
0
0
SPLINE
5
302
100
AcDbEntity
8
0
100
AcDbSpline
70
1064
71
3
72
9
73
5
74
0
42
0.000000001
43
0.0000000001
44
0.0000000001
40
0
40
0
40
0
40
0
40
0.083068873693556949
40
0.16235657839036408
40
0.16235657839036408
40
0.16235657839036408
40
0.16235657839036408
10
7.5000146121817579
20
0.70834700049654531
30
0
10
7.4888731131216648
20
0.70749775390507608
30
0
10
7.4670972591211742
20
0.70583791713746502
30
0
10
7.4499441608981494
20
0.692367013729418
30
0
10
7.4415673535028111
20
0.68578842589512412
30
0
0
SPLINE
5
303
100
AcDbEntity
8
0
100
AcDbSpline
70
1064
71
3
72
9
73
5
74
0
42
0.000000001
43
0.0000000001
44
0.0000000001
40
0
40
0
40
0
40
0
40
0.076955049544084719
40
0.1526361251355553
40
0.1526361251355553
40
0.1526361251355553
40
0.1526361251355553
10
7.4415673535028111
20
0.68578842589512412
30
0
10
7.4347885201526154
20
0.67794304030385222
30
0
10
7.4213430755503005
20
0.66238214775761273
30
0
10
7.419325523765731
20
0.64192680974981164
30
0
10
7.4183251675985256
20
0.63178450575301792
30
0
0
SPLINE
5
304
100
AcDbEntity
8
0
100
AcDbSpline
70
1064
71
3
72
9
73
5
74
0
42
0.000000001
43
0.0000000001
44
0.0000000001
40
0
40
0
40
0
40
0
40
0.066238904224746237
40
0.1341277547973504
40
0.1341277547973504
40
0.1341277547973504
40
0.1341277547973504
10
7.3985009502095771
20
0.40038801086507275
30
0
10
7.3990458770302636
20
0.39163721793969797
30
0
10
7.4001493042660105
20
0.37391765839211488
30
0
10
7.4073379825533872
20
0.3576793061601789
30
0
10
7.4109765367572029
20
0.34946025358687066
30
0
0
SPLINE
5
305
100
AcDbEntity
8
0
100
AcDbSpline
70
1064
71
3
72
9
73
5
74
0
42
0.000000001
43
0.0000000001
44
0.0000000001
40
0
40
0
40
0
40
0
40
0.068021606887291142
40
0.13667193975655734
40
0.13667193975655734
40
0.13667193975655734
40
0.13667193975655734
10
7.4109765367572029
20
0.34946025358687066
30
0
10
7.4156593580042358
20
0.34170975503381096
30
0
10
7.4250682839713296
20
0.32613711981097304
30
0
10
7.4403736190004572
20
0.31629409038410244
30
0
10
7.4480614907486498
20
0.31134993544051798
30
0
0
SPLINE
5
306
100
AcDbEntity
8
0
100
AcDbSpline
70
1064
71
3
72
9
73
5
74
0
42
0.000000001
43
0.0000000001
44
0.0000000001
40
0
40
0
40
0
40
0
40
0.069806002482131355
40
0.14000170133272483
40
0.14000170133272483
40
0.14000170133272483
40
0.14000170133272483
10
7.4480614907486498
20
0.31134993544051798
30
0
10
7.4564343632689063
20
0.30741217342334853
30
0
10
7.4732268503931758
20
0.2995146665866229
30
0
10
7.4917517775271198
20
0.29840522966453753
30
0
10
7.5010400232694545
20
0.29784896713818915
30
0
0
SPLINE
5
307
100
AcDbEntity
8
0
100
AcDbSpline
70
1064
71
3
72
9
73
5
74
0
42
0.000000001
43
0.0000000001
44
0.0000000001
40
0
40
0
40
0
40
0
40
0.10380136374731076
40
0.20258773649030967
40
0.20258773649030967
40
0.20258773649030967
40
0.20258773649030967
10
7.5010400232694545
20
0.29784896713818915
30
0
10
7.5149711360369222
20
0.29890949541269723
30
0
10
7.5421603029270869
20
0.30097931429426389
30
0
10
7.5634576586675006
20
0.31794516801272277
30
0
10
7.5738427321130164
20
0.32621810288217884
30
0
0
SPLINE
5
308
100
AcDbEntity
8
0
100
AcDbSpline
70
1064
71
3
72
9
73
5
74
0
42
0.000000001
43
0.0000000001
44
0.0000000001
40
0
40
0
40
0
40
0
40
0.098421044062040566
40
0.20140583756671687
40
0.20140583756671687
40
0.20140583756671687
40
0.20140583756671687
10
7.5738427321130164
20
0.32621810288217884
30
0
10
7.5822155455842735
20
0.33647389179459791
30
0
10
7.599349416963503
20
0.35746102696978627
30
0
10
7.601469577996407
20
0.38450754614571547
30
0
10
7.6025536793750366
20
0.39833723562246992
30
0
0
SPLINE
5
309
100
AcDbEntity
8
0
100
AcDbSpline
70
1064
71
3
72
9
73
5
74
0
42
0.000000001
43
0.0000000001
44
0.0000000001
40
0
40
0
40
0
40
0
40
0.10478994078489298
40
0.20555996006500515
40
0.20555996006500515
40
0.20555996006500515
40
0.20555996006500515
10
7.6025536793750366
20
0.39833723562246992
30
0
10
7.6014210359367933
20
0.41240858954982468
30
0
10
7.5991991992014212
20
0.44001149618095997
30
0
10
7.5816105791418105
20
0.46135869871182938
30
0
10
7.5729882502507309
20
0.4718235675020932
30
0
0
SPLINE
5
310
100
AcDbEntity
8
0
100
AcDbSpline
70
1064
71
3
72
9
73
5
74
0
42
0.000000001
43
0.0000000001
44
0.0000000001
40
0
40
0
40
0
40
0
40
0.10104308495912064
40
0.20609568454693428
40
0.20609568454693428
40
0.20609568454693428
40
0.20609568454693428
10
7.5729882502507309
20
0.4718235675020932
30
0
10
7.562374560073903
20
0.48029637443794693
30
0
10
7.5407260153620381
20
0.49757819977201379
30
0
10
7.5130807641758892
20
0.49976276847820211
30
0
10
7.4989892245604564
20
0.50087630281574913
30
0
0
SPLINE
5
311
100
AcDbEntity
8
0
100
AcDbSpline
70
1064
71
3
72
9
73
5
74
0
42
0.000000001
43
0.0000000001
44
0.0000000001
40
0
40
0
40
0
40
0
40
0.10245072879264379
40
0.20096205318638288
40
0.20096205318638288
40
0.20096205318638288
40
0.20096205318638288
10
7.4989892245604564
20
0.50087630281574913
30
0
10
7.485236796538838
20
0.49977662673514012
30
0
10
7.4582607446933107
20
0.49761955898556431
30
0
10
7.4373106871933361
20
0.48053849385261449
30
0
10
7.4270409975791809
20
0.47216537902012418
30
0
0
SPLINE
5
312
100
AcDbEntity
8
0
100
AcDbSpline
70
1064
71
3
72
9
73
5
74
0
42
0.000000001
43
0.0000000001
44
0.0000000001
40
0
40
0
40
0
40
0
40
0.098421409293799444
40
0.20031899326316582
40
0.20031899326316582
40
0.20031899326316582
40
0.20031899326316582
10
7.4270409975791809
20
0.47216537902012418
30
0
10
7.41871752035187
20
0.46187626273813942
30
0
10
7.4017765865592384
20
0.44093462585279292
30
0
10
7.3996053880701638
20
0.41405900847618599
30
0
10
7.3985009502095771
20
0.40038801086507275
30
0
0
LINE
5
313
100
AcDbEntity
8
0
100
AcDbLine
10
6.335268529742561
20
0.68271226303122001
30
0
11
6.335268529742561
21
0.7418431212798331
31
0
0
LINE
5
314
100
AcDbEntity
8
0
100
AcDbLine
10
6.335268529742561
20
0.7418431212798331
30
0
11
6.6596337799808447
21
0.74184312127983298
31
0
0
LINE
5
315
100
AcDbEntity
8
0
100
AcDbLine
10
6.6596337799808447
20
0.74184312127983298
30
0
11
6.6596337799808447
21
0.6939915737983261
31
0
0
SPLINE
5
316
100
AcDbEntity
8
0
100
AcDbSpline
70
1064
71
3
72
9
73
5
74
0
42
0.000000001
43
0.0000000001
44
0.0000000001
40
0
40
0
40
0
40
0
40
0.19320831663397944
40
0.42056911451108392
40
0.42056911451108392
40
0.42056911451108392
40
0.42056911451108392
10
6.6596337799808447
20
0.6939915737983261
30
0
10
6.6431787659162111
20
0.67463197793747953
30
0
10
6.6073600661055796
20
0.63249068593547275
30
0
10
6.5797248277957836
20
0.58455444601200268
30
0
10
6.5647851434137214
20
0.55863998539142556
30
0
0
SPLINE
5
317
100
AcDbEntity
8
0
100
AcDbSpline
70
1064
71
3
72
9
73
5
74
0
42
0.000000001
43
0.0000000001
44
0.0000000001
40
0
40
0
40
0
40
0
40
0.24184837476759369
40
0.47884146452155352
40
0.47884146452155352
40
0.47884146452155352
40
0.47884146452155352
10
6.5647851434137214
20
0.55863998539142556
30
0
10
6.5500539347818743
20
0.53045313908545788
30
0
10
6.5208872574278294
20
0.47464531826233453
30
0
10
6.5016663168681044
20
0.4146839078729373
30
0
10
6.4921532933963837
20
0.38500719654555215
30
0
0
SPLINE
5
318
100
AcDbEntity
8
0
100
AcDbSpline
70
1064
71
3
72
9
73
5
74
0
42
0.000000001
43
0.0000000001
44
0.0000000001
40
0
40
0
40
0
40
0
40
0.17169163500970683
40
0.35548357761187521
40
0.35548357761187521
40
0.35548357761187521
40
0.35548357761187521
10
6.4921532933963837
20
0.38500719654555215
30
0
10
6.4865304477041228
20
0.36314739078701103
30
0
10
6.4748884751471518
20
0.31788716621924124
30
0
10
6.4707229601833589
20
0.27133262641003081
30
0
10
6.4685693077072655
20
0.24726302137801798
30
0
0
LINE
5
319
100
AcDbEntity
8
0
100
AcDbLine
10
6.4685693077072672
20
0.24726302137801803
30
0
11
6.4053368872402494
21
0.24726302137801798
31
0
0
SPLINE
5
320
100
AcDbEntity
8
0
100
AcDbSpline
70
1064
71
3
72
9
73
5
74
0
42
0.000000001
43
0.0000000001
44
0.0000000001
40
0
40
0
40
0
40
0
40
0.16659529697818654
40
0.36829972432849689
40
0.36829972432849689
40
0.36829972432849689
40
0.36829972432849689
10
6.4053368872402494
20
0.24726302137801798
30
0
10
6.4068678497931266
20
0.26911457902302044
30
0
10
6.4102524176435391
20
0.3174228014205378
30
0
10
6.4220939141466795
20
0.3644041504262498
30
0
10
6.428579073144534
20
0.39013413465205909
30
0
0
SPLINE
5
321
100
AcDbEntity
8
0
100
AcDbSpline
70
1064
71
3
72
9
73
5
74
0
42
0.000000001
43
0.0000000001
44
0.0000000001
40
0
40
0
40
0
40
0
40
0.21990632501897536
40
0.44174807541930483
40
0.44174807541930483
40
0.44174807541930483
40
0.44174807541930483
10
6.428579073144534
20
0.39013413465205909
30
0
10
6.4368194104182246
20
0.41785457651581442
30
0
10
6.4533726092911765
20
0.47353943161050083
30
0
10
6.4793024671454464
20
0.52552599073719919
30
0
10
6.4923241991553988
20
0.55163315433493576
30
0
0
SPLINE
5
322
100
AcDbEntity
8
0
100
AcDbSpline
70
1064
71
3
72
9
73
5
74
0
42
0.000000001
43
0.0000000001
44
0.0000000001
40
0
40
0
40
0
40
0
40
0.21205518807325888
40
0.40217086177440836
40
0.40217086177440836
40
0.40217086177440836
40
0.40217086177440836
10
6.4923241991553988
20
0.55163315433493576
30
0
10
6.5059142241928587
20
0.57598731777581058
30
0
10
6.5316882320372827
20
0.62217593022054718
30
0
10
6.5649534456232104
20
0.66328094895203482
30
0
10
6.5806786984766834
20
0.6827122630312199
30
0
0
LINE
5
323
100
AcDbEntity
8
0
100
AcDbLine
10
6.5806786984766834
20
0.6827122630312199
30
0
11
6.335268529742561
21
0.68271226303122001
31
0
0
LINE
5
324
100
AcDbEntity
8
0
100
AcDbLine
10
5.6572411814870138
20
0.6341770925136514
30
0
11
5.5960595479957975
21
0.62939191899238434
31
0
0
SPLINE
5
325
100
AcDbEntity
8
0
100
AcDbSpline
70
1064
71
3
72
9
73
5
74
0
42
0.000000001
43
0.0000000001
44
0.0000000001
40
0
40
0
40
0
40
0
40
0.083331321614167092
40
0.1472888673370823
40
0.1472888673370823
40
0.1472888673370823
40
0.1472888673370823
10
5.5960595479957975
20
0.62939191899238434
30
0
10
5.5934585598126532
20
0.64014120402262054
30
0
10
5.5888612895902252
20
0.65914066288297046
30
0
10
5.577674857580031
20
0.67509901301852404
30
0
10
5.5728173503583145
20
0.68202863999515839
30
0
0
SPLINE
5
326
100
AcDbEntity
8
0
100
AcDbSpline
70
1064
71
3
72
9
73
5
74
0
42
0.000000001
43
0.0000000001
44
0.0000000001
40
0
40
0
40
0
40
0
40
0.086717862205181351
40
0.17384978846069879
40
0.17384978846069879
40
0.17384978846069879
40
0.17384978846069879
10
5.5728173503583145
20
0.68202863999515839
30
0
10
5.5640016290729539
20
0.6897048160630328
30
0
10
5.5463280928300724
20
0.70509382072310489
30
0
10
5.5229904958298848
20
0.70726088678002086
30
0
10
5.5112939053490679
20
0.70834700049654531
30
0
0
SPLINE
5
327
100
AcDbEntity
8
0
100
AcDbSpline
70
1064
71
3
72
9
73
5
74
0
42
0.000000001
43
0.0000000001
44
0.0000000001
40
0
40
0
40
0
40
0
40
0.070874045736960919
40
0.13940439809220481
40
0.13940439809220481
40
0.13940439809220481
40
0.13940439809220481
10
5.5112939053490679
20
0.70834700049654531
30
0
10
5.501859365244206
20
0.70771055675474193
30
0
10
5.48330227045839
20
0.7064587154661135
30
0
10
5.4674670790205742
20
0.69672552749859984
30
0
10
5.4596825954339909
20
0.69194075162293234
30
0
0
SPLINE
5
328
100
AcDbEntity
8
0
100
AcDbSpline
70
1064
71
3
72
9
73
5
74
0
42
0.000000001
43
0.0000000001
44
0.0000000001
40
0
40
0
40
0
40
0
40
0.093464071113832772
40
0.19741402811831377
40
0.19741402811831377
40
0.19741402811831377
40
0.19741402811831377
10
5.4596825954339909
20
0.69194075162293234
30
0
10
5.4503804847744277
20
0.68373708032587022
30
0
10
5.4307326445570876
20
0.66640935452908623
30
0
10
5.4196941960274234
20
0.64260820618576331
30
0
10
5.4138818114618896
20
0.63007551856205046
30
0
0
SPLINE
5
329
100
AcDbEntity
8
0
100
AcDbSpline
70
1064
71
3
72
9
73
5
74
0
42
0.000000001
43
0.0000000001
44
0.0000000001
40
0
40
0
40
0
40
0
40
0.12934081854975368
40
0.29883659217769609
40
0.29883659217769609
40
0.29883659217769609
40
0.29883659217769609
10
5.4138818114618896
20
0.63007551856205046
30
0
10
5.4089781044119452
20
0.6137483305409841
30
0
10
5.3976482928313931
20
0.57602504037807944
30
0
10
5.3968837861713244
20
0.53657938914441583
30
0
10
5.3964501691003761
20
0.51420638882545799
30
0
0
SPLINE
5
330
100
AcDbEntity
8
0
100
AcDbSpline
70
1064
71
3
72
9
73
5
74
0
42
0.000000001
43
0.0000000001
44
0.0000000001
40
0
40
0
40
0
40
0
40
0.097679577014024674
40
0.18962350302631961
40
0.18962350302631961
40
0.18962350302631961
40
0.18962350302631961
10
5.3964501691003761
20
0.51420638882545799
30
0
10
5.4040974817064731
20
0.5246701335424373
30
0
10
5.4189430640629288
20
0.54498320193053951
30
0
10
5.440394554152955
20
0.55809360195497248
30
0
10
5.4507958714275189
20
0.56445052306759846
30
0
0
SPLINE
5
331
100
AcDbEntity
8
0
100
AcDbSpline
70
1064
71
3
72
9
73
5
74
0
42
0.000000001
43
0.0000000001
44
0.0000000001
40
0
40
0
40
0
40
0
40
0.089214410560794127
40
0.17730017549404839
40
0.17730017549404839
40
0.17730017549404839
40
0.17730017549404839
10
5.4507958714275189
20
0.56445052306759846
30
0
10
5.4615958623745193
20
0.5692356173405464
30
0
10
5.4830592142949195
20
0.57874526997419917
30
0
10
5.5064893575210885
20
0.58015593125001708
30
0
10
5.5181298541129378
20
0.58085677194121144
30
0
0
SPLINE
5
332
100
AcDbEntity
8
0
100
AcDbSpline
70
1064
71
3
72
9
73
5
74
0
42
0.000000001
43
0.0000000001
44
0.0000000001
40
0
40
0
40
0
40
0
40
0.14748868488779071
40
0.29645006384744066
40
0.29645006384744066
40
0.29645006384744066
40
0.29645006384744066
10
5.5181298541129378
20
0.58085677194121144
30
0
10
5.5379111539869523
20
0.57893254995412369
30
0
10
5.5776712726367226
20
0.57506489236830394
30
0
10
5.6077676551716129
20
0.5487776227853588
30
0
10
5.6228906023078356
20
0.53556869351295799
30
0
0
SPLINE
5
333
100
AcDbEntity
8
0
100
AcDbSpline
70
1064
71
3
72
9
73
5
74
0
42
0.000000001
43
0.0000000001
44
0.0000000001
40
0
40
0
40
0
40
0
40
0.1554651119584394
40
0.32322085214175811
40
0.32322085214175811
40
0.32322085214175811
40
0.32322085214175811
10
5.6228906023078356
20
0.53556869351295799
30
0
10
5.6354964633855706
20
0.51894429766211847
30
0
10
5.6617047689545776
20
0.48438122865222577
30
0
10
5.6646166184879228
20
0.44101229795822949
30
0
10
5.6661279054934859
20
0.41850327039604873
30
0
0
SPLINE
5
334
100
AcDbEntity
8
0
100
AcDbSpline
70
1064
71
3
72
9
73
5
74
0
42
0.000000001
43
0.0000000001
44
0.0000000001
40
0
40
0
40
0
40
0
40
0.11629360503288919
40
0.23019459370301892
40
0.23019459370301892
40
0.23019459370301892
40
0.23019459370301892
10
5.6661279054934859
20
0.41850327039604873
30
0
10
5.6653163189147682
20
0.40313002076422888
30
0
10
5.6637098432819073
20
0.3726998096456467
30
0
10
5.6517224080337281
20
0.3446911283204187
30
0
10
5.6457909884272874
20
0.330832347178035
30
0
0
SPLINE
5
335
100
AcDbEntity
8
0
100
AcDbSpline
70
1064
71
3
72
9
73
5
74
0
42
0.000000001
43
0.0000000001
44
0.0000000001
40
0
40
0
40
0
40
0
40
0.10958912800773853
40
0.21425806702978639
40
0.21425806702978639
40
0.21425806702978639
40
0.21425806702978639
10
5.6457909884272874
20
0.330832347178035
30
0
10
5.6385200368330368
20
0.3182089472489818
30
0
10
5.6243045752961853
20
0.29352889625020134
30
0
10
5.6011961045214367
20
0.27691325129179573
30
0
10
5.589907198801594
20
0.26879620835813772
30
0
0
SPLINE
5
336
100
AcDbEntity
8
0
100
AcDbSpline
70
1064
71
3
72
9
73
5
74
0
42
0.000000001
43
0.0000000001
44
0.0000000001
40
0
40
0
40
0
40
0
40
0.1047337178552126
40
0.21411226428681401
40
0.21411226428681401
40
0.21411226428681401
40
0.21411226428681401
10
5.589907198801594
20
0.26879620835813772
30
0
10
5.5775029103113702
20
0.26251651624325412
30
0
10
5.5521442163788199
20
0.24967863437219742
30
0
10
5.5237488233173044
20
0.24807978720038509
30
0
10
5.5092431301064657
20
0.24726302137801789
30
0
0
SPLINE
5
337
100
AcDbEntity
8
0
100
AcDbSpline
70
1064
71
3
72
9
73
5
74
0
42
0.000000001
43
0.0000000001
44
0.0000000001
40
0
40
0
40
0
40
0
40
0.18092408941881694
40
0.35862137089303764
40
0.35862137089303764
40
0.35862137089303764
40
0.35862137089303764
10
5.5092431301064657
20
0.24726302137801789
30
0
10
5.484864717370364
20
0.24953400423470598
30
0
10
5.4365426845017693
20
0.25403546663231241
30
0
10
5.401277584262318
20
0.2873319611339773
30
0
10
5.3838036885269318
20
0.30383041057337756
30
0
0
SPLINE
5
338
100
AcDbEntity
8
0
100
AcDbSpline
70
1064
71
3
72
9
73
5
74
0
42
0.000000001
43
0.0000000001
44
0.0000000001
40
0
40
0
40
0
40
0
40
0.21151515689595987
40
0.49653338453606388
40
0.49653338453606388
40
0.49653338453606388
40
0.49653338453606388
10
5.3838036885269318
20
0.30383041057337756
30
0
10
5.3697248037105529
20
0.32823571449999972
30
0
10
5.3366745181851103
20
0.38552734474131417
30
0
10
5.3357812691800275
20
0.45207891139748002
30
0
10
5.335268529742561
20
0.49028059161830906
30
0
0
SPLINE
5
339
100
AcDbEntity
8
0
100
AcDbSpline
70
1064
71
3
72
9
73
5
74
0
42
0.000000001
43
0.0000000001
44
0.0000000001
40
0
40
0
40
0
40
0
40
0.32043312521561135
40
0.56112929609176643
40
0.56112929609176643
40
0.56112929609176643
40
0.56112929609176643
10
5.335268529742561
20
0.49028059161830906
30
0
10
5.3359177799892894
20
0.53316234711546973
30
0
10
5.3370547202906051
20
0.6082551118260785
30
0
10
5.3733582534075977
20
0.67351699495638617
30
0
10
5.3889306383666371
20
0.70151105173267547
30
0
0
SPLINE
5
340
100
AcDbEntity
8
0
100
AcDbSpline
70
1064
71
3
72
9
73
5
74
0
42
0.000000001
43
0.0000000001
44
0.0000000001
40
0
40
0
40
0
40
0
40
0.17731933580170778
40
0.36175481234288009
40
0.36175481234288009
40
0.36175481234288009
40
0.36175481234288009
10
5.3889306383666371
20
0.70151105173267547
30
0
10
5.4061432787259527
20
0.71825728838284919
30
0
10
5.4412593333567525
20
0.75242181798388297
30
0
10
5.4901350908255067
20
0.7567342930212767
30
0
10
5.515053691249034
20
0.75893294625671659
30
0
0
SPLINE
5
341
100
AcDbEntity
8
0
100
AcDbSpline
70
1064
71
3
72
9
73
5
74
0
42
0.000000001
43
0.0000000001
44
0.0000000001
40
0
40
0
40
0
40
0
40
0.13823983450076063
40
0.26464667226724292
40
0.26464667226724292
40
0.26464667226724292
40
0.26464667226724292
10
5.515053691249034
20
0.75893294625671659
30
0
10
5.5335623547471204
20
0.75781593113744916
30
0
10
5.5689953847458344
20
0.75567751470159428
30
0
10
5.5980671534629307
20
0.73544335674753336
30
0
10
5.6119531030587604
20
0.72577863699145961
30
0
0
SPLINE
5
342
100
AcDbEntity
8
0
100
AcDbSpline
70
1064
71
3
72
9
73
5
74
0
42
0.000000001
43
0.0000000001
44
0.0000000001
40
0
40
0
40
0
40
0
40
0.12625864495880737
40
0.26408427854421296
40
0.26408427854421296
40
0.26408427854421296
40
0.26408427854421296
10
5.6119531030587604
20
0.72577863699145961
30
0
10
5.6233279091677444
20
0.71327859434504093
30
0
10
5.6471196064875722
20
0.68713333716183256
30
0
10
5.6537702233317679
20
0.65233720190798117
30
0
10
5.6572411814870138
20
0.6341770925136514
30
0
0
SPLINE
5
343
100
AcDbEntity
8
0
100
AcDbSpline
70
1064
71
3
72
9
73
5
74
0
42
0.000000001
43
0.0000000001
44
0.0000000001
40
0
40
0
40
0
40
0
40
0.079466778196537691
40
0.15925593464115273
40
0.15925593464115273
40
0.15925593464115273
40
0.15925593464115273
10
5.406020480943317
20
0.41816145887801798
30
0
10
5.4065875648815487
20
0.40766991967596239
30
0
10
5.4077240332857395
20
0.38664427953593655
30
0
10
5.4155836778021875
20
0.36710900143639624
30
0
10
5.4195214551122444
20
0.35732158997204189
30
0
0
SPLINE
5
344
100
AcDbEntity
8
0
100
AcDbSpline
70
1064
71
3
72
9
73
5
74
0
42
0.000000001
43
0.0000000001
44
0.0000000001
40
0
40
0
40
0
40
0
40
0.076922831117917298
40
0.14939576437914998
40
0.14939576437914998
40
0.14939576437914998
40
0.14939576437914998
10
5.4195214551122444
20
0.35732158997204189
30
0
10
5.4243433439995901
20
0.34829530768773426
30
0
10
5.4337081810136096
20
0.33076490323214436
30
0
10
5.4495870553485357
20
0.31884252734122237
30
0
10
5.4572900086733576
20
0.31305889916508989
30
0
0
SPLINE
5
345
100
AcDbEntity
8
0
100
AcDbSpline
70
1064
71
3
72
9
73
5
74
0
42
0.000000001
43
0.0000000001
44
0.0000000001
40
0
40
0
40
0
40
0
40
0.06948811706000621
40
0.13638647616873395
40
0.13638647616873395
40
0.13638647616873395
40
0.13638647616873395
10
5.4572900086733576
20
0.31305889916508989
30
0
10
5.4653913317842262
20
0.30862314078449576
30
0
10
5.4812920491751083
20
0.29991694064177599
30
0
10
5.4993568518149427
20
0.29852950995330596
30
0
10
5.5082177424851642
20
0.29784896713818915
30
0
0
SPLINE
5
346
100
AcDbEntity
8
0
100
AcDbSpline
70
1064
71
3
72
9
73
5
74
0
42
0.000000001
43
0.0000000001
44
0.0000000001
40
0
40
0
40
0
40
0
40
0.094166778391630054
40
0.19262214094224056
40
0.19262214094224056
40
0.19262214094224056
40
0.19262214094224056
10
5.5082177424851642
20
0.29784896713818915
30
0
10
5.5208493247741401
20
0.29927204285259268
30
0
10
5.5466877623372426
20
0.30218300461122133
30
0
10
5.5655624685747718
20
0.32012403097284614
30
0
10
5.5752099371189487
20
0.32929426574608295
30
0
0
SPLINE
5
347
100
AcDbEntity
8
0
100
AcDbSpline
70
1064
71
3
72
9
73
5
74
0
42
0.000000001
43
0.0000000001
44
0.0000000001
40
0
40
0
40
0
40
0
40
0.10827545631910178
40
0.23240314138129081
40
0.23240314138129081
40
0.23240314138129081
40
0.23240314138129081
10
5.5752099371189487
20
0.32929426574608295
30
0
10
5.5833744101981306
20
0.3412597035427074
30
0
10
5.6008986881446754
20
0.36694239680000984
30
0
10
5.6024230926882304
20
0.39810133767709294
30
0
10
5.6032372848113026
20
0.41474348449608295
30
0
0
SPLINE
5
348
100
AcDbEntity
8
0
100
AcDbSpline
70
1064
71
3
72
9
73
5
74
0
42
0.000000001
43
0.0000000001
44
0.0000000001
40
0
40
0
40
0
40
0
40
0.11926460439358731
40
0.22354812865579238
40
0.22354812865579238
40
0.22354812865579238
40
0.22354812865579238
10
5.6032372848113026
20
0.41474348449608295
30
0
10
5.6024262612691746
20
0.43075173768077968
30
0
10
5.6009060885736774
20
0.46075741338551135
30
0
10
5.5836169694737645
20
0.48520106605416752
30
0
10
5.5755517251705839
20
0.49660384657152823
30
0
0
SPLINE
5
349
100
AcDbEntity
8
0
100
AcDbSpline
70
1064
71
3
72
9
73
5
74
0
42
0.000000001
43
0.0000000001
44
0.0000000001
40
0
40
0
40
0
40
0
40
0.09775575386518276
40
0.19725345328275928
40
0.19725345328275928
40
0.19725345328275928
40
0.19725345328275928
10
5.5755517251705839
20
0.49660384657152823
30
0
10
5.565664177913054
20
0.50532658642006134
30
0
10
5.5457128935750095
20
0.52292749981062459
30
0
10
5.5191991160781129
20
0.52530953052952845
30
0
10
5.5058251557245308
20
0.52651106374747003
30
0
0
SPLINE
5
350
100
AcDbEntity
8
0
100
AcDbSpline
70
1064
71
3
72
9
73
5
74
0
42
0.000000001
43
0.0000000001
44
0.0000000001
40
0
40
0
40
0
40
0
40
0.099710727334540436
40
0.1994162461488363
40
0.1994162461488363
40
0.1994162461488363
40
0.1994162461488363
10
5.5058251557245308
20
0.52651106374747003
30
0
10
5.4924524795305611
20
0.52526506576055809
30
0
10
5.4657078256818528
20
0.52277313487306853
30
0
10
5.4452845788325197
20
0.50532679077930787
30
0
10
5.435073222123572
20
0.49660384657152823
30
0
0
SPLINE
5
351
100
AcDbEntity
8
0
100
AcDbSpline
70
1064
71
3
72
9
73
5
74
0
42
0.000000001
43
0.0000000001
44
0.0000000001
40
0
40
0
40
0
40
0
40
0.10378223430469297
40
0.21674936412795281
40
0.21674936412795281
40
0.21674936412795281
40
0.21674936412795281
10
5.435073222123572
20
0.49660384657152823
30
0
10
5.4266036759847465
20
0.48554101508638092
30
0
10
5.4089150151812699
20
0.46243627364459872
30
0
10
5.4070122033200718
20
0.43333085088416129
30
0
10
5.406020480943317
20
0.41816145887801798
30
0
0
LINE
5
352
100
AcDbEntity
8
0
100
AcDbLine
10
4.3352685297425628
20
0.38705792485536383
30
0
11
4.3998681376157132
21
0.39252667447990153
31
0
0
SPLINE
5
353
100
AcDbEntity
8
0
100
AcDbSpline
70
1064
71
3
72
9
73
5
74
0
42
0.000000001
43
0.0000000001
44
0.0000000001
40
0
40
0
40
0
40
0
40
0.10921984984366646
40
0.20201917061692448
40
0.20201917061692448
40
0.20201917061692448
40
0.20201917061692448
10
4.3998681376157132
20
0.39252667447990153
30
0
10
4.4026455918228207
20
0.37817234364292324
30
0
10
4.4077829271711968
20
0.35162176685126834
30
0
10
4.4251949569029829
20
0.33105249256976804
30
0
10
4.4331933291735899
20
0.32160381165353163
30
0
0
SPLINE
5
354
100
AcDbEntity
8
0
100
AcDbSpline
70
1064
71
3
72
9
73
5
74
0
42
0.000000001
43
0.0000000001
44
0.0000000001
40
0
40
0
40
0
40
0
40
0.086102203263714996
40
0.17432622930225472
40
0.17432622930225472
40
0.17432622930225472
40
0.17432622930225472
10
4.4331933291735899
20
0.32160381165353163
30
0
10
4.4424309762819529
20
0.31467561671642491
30
0
10
4.4611339144993831
20
0.30064849483712053
30
0
10
4.4844532642606234
20
0.29878968458021016
30
0
10
4.4962548556147883
20
0.29784896713818915
30
0
0
SPLINE
5
355
100
AcDbEntity
8
0
100
AcDbSpline
70
1064
71
3
72
9
73
5
74
0
42
0.000000001
43
0.0000000001
44
0.0000000001
40
0
40
0
40
0
40
0
40
0.10632880694922626
40
0.21407305358851753
40
0.21407305358851753
40
0.21407305358851753
40
0.21407305358851753
10
4.4962548556147883
20
0.29784896713818915
30
0
10
4.5105297944612746
20
0.29928116804754651
30
0
10
4.5392696988798003
20
0.30216463519831416
30
0
10
4.5606761699326457
20
0.32157545794797665
30
0
10
4.5714501746853795
20
0.33134504098868567
30
0
0
SPLINE
5
356
100
AcDbEntity
8
0
100
AcDbSpline
70
1064
71
3
72
9
73
5
74
0
42
0.000000001
43
0.0000000001
44
0.0000000001
40
0
40
0
40
0
40
0
40
0.11501869507925294
40
0.24326692811009959
40
0.24326692811009959
40
0.24326692811009959
40
0.24326692811009959
10
4.5714501746853795
20
0.33134504098868567
30
0
10
4.5804151533285413
20
0.34387709110980974
30
0
10
4.5993762692896656
20
0.37038263730633908
30
0
10
4.6012330292842227
20
0.40301089642972987
30
0
10
4.6022118971900028
20
0.42021223412062064
30
0
0
SPLINE
5
357
100
AcDbEntity
8
0
100
AcDbSpline
70
1064
71
3
72
9
73
5
74
0
42
0.000000001
43
0.0000000001
44
0.0000000001
40
0
40
0
40
0
40
0
40
0.12105435717704288
40
0.22839229647233394
40
0.22839229647233394
40
0.22839229647233394
40
0.22839229647233394
10
4.6022118971900028
20
0.42021223412062064
30
0
10
4.6013043018127826
20
0.43648162482185732
30
0
10
4.5995919488062098
20
0.46717695534206904
30
0
10
4.5812613381842437
20
0.49172976252387074
30
0
10
4.5726464680656962
20
0.50326888957638272
30
0
0
SPLINE
5
358
100
AcDbEntity
8
0
100
AcDbSpline
70
1064
71
3
72
9
73
5
74
0
42
0.000000001
43
0.0000000001
44
0.0000000001
40
0
40
0
40
0
40
0
40
0.10429024923244269
40
0.21590575047582708
40
0.21590575047582708
40
0.21590575047582708
40
0.21590575047582708
10
4.5726464680656962
20
0.50326888957638272
30
0
10
4.561774879448758
20
0.51213854705279638
30
0
10
4.5392680917434882
20
0.5305008586591331
30
0
10
4.5102373279052443
20
0.53260238637866086
30
0
10
4.4952294679934868
20
0.53368880056297519
30
0
0
SPLINE
5
359
100
AcDbEntity
8
0
100
AcDbSpline
70
1064
71
3
72
9
73
5
74
0
42
0.000000001
43
0.0000000001
44
0.0000000001
40
0
40
0
40
0
40
0
40
0.072350313392741381
40
0.14175295984807909
40
0.14175295984807909
40
0.14175295984807909
40
0.14175295984807909
10
4.4952294679934868
20
0.53368880056297519
30
0
10
4.4856461190217818
20
0.53317454143123444
30
0
10
4.4668698619705918
20
0.53216697490339626
30
0
10
4.4498837885337004
20
0.52412513809982064
30
0
10
4.4415673593694116
20
0.52018783226064635
30
0
0
SPLINE
5
360
100
AcDbEntity
8
0
100
AcDbSpline
70
1064
71
3
72
9
73
5
74
0
42
0.000000001
43
0.0000000001
44
0.0000000001
40
0
40
0
40
0
40
0
40
0.067052065724847856
40
0.13155096330640975
40
0.13155096330640975
40
0.13155096330640975
40
0.13155096330640975
10
4.4415673593694116
20
0.52018783226064635
30
0
10
4.4340656486125196
20
0.51542498335109654
30
0
10
4.4193478727193058
20
0.50608064242198536
30
0
10
4.409029000531504
20
0.49203847203855278
30
0
10
4.403969699834116
20
0.48515365351180223
30
0
0
LINE
5
361
100
AcDbEntity
8
0
100
AcDbLine
10
4.403969699834116
20
0.48515365351180212
30
0
11
4.346206028991638
21
0.49267317837894264
31
0
0
LINE
5
362
100
AcDbEntity
8
0
100
AcDbLine
10
4.346206028991638
20
0.49267317837894264
30
0
11
4.3947411877760088
21
0.75004622225024398
31
0
0
LINE
5
363
100
AcDbEntity
8
0
100
AcDbLine
10
4.3947411877760088
20
0.75004622225024398
30
0
11
4.6439111189437012
21
0.75004622225024387
31
0
0
LINE
5
364
100
AcDbEntity
8
0
100
AcDbLine
10
4.6439111189437012
20
0.75004622225024387
30
0
11
4.6439111189437012
21
0.6912571755196617
31
0
0
LINE
5
365
100
AcDbEntity
8
0
100
AcDbLine
10
4.6439111189437012
20
0.6912571755196617
30
0
11
4.4439599343968474
21
0.69125717551966182
31
0
0
LINE
5
366
100
AcDbEntity
8
0
100
AcDbLine
10
4.4439599343968474
20
0.69125717551966182
30
0
11
4.4169579860589927
21
0.55658918668242718
31
0
0
SPLINE
5
367
100
AcDbEntity
8
0
100
AcDbSpline
70
1064
71
3
72
9
73
5
74
0
42
0.000000001
43
0.0000000001
44
0.0000000001
40
0
40
0
40
0
40
0
40
0.13181681524165664
40
0.25648850780642174
40
0.25648850780642174
40
0.25648850780642174
40
0.25648850780642174
10
4.4169579860589927
20
0.55658918668242718
30
0
10
4.4319391902186585
20
0.56575864412497379
30
0
10
4.4610895432522355
20
0.58360052911151095
30
0
10
4.4951028338139878
20
0.58658422158972701
30
0
10
4.5116357168671
20
0.58803450875671659
30
0
0
SPLINE
5
368
100
AcDbEntity
8
0
100
AcDbSpline
70
1064
71
3
72
9
73
5
74
0
42
0.000000001
43
0.0000000001
44
0.0000000001
40
0
40
0
40
0
40
0
40
0.15635281820106081
40
0.31058110071120293
40
0.31058110071120293
40
0.31058110071120293
40
0.31058110071120293
10
4.5116357168671
20
0.58803450875671659
30
0
10
4.532603991247095
20
0.58619275587425557
30
0
10
4.5742556212713046
20
0.58253427600766805
30
0
10
4.6064104646864115
20
0.55583422765942292
30
0
10
4.6223779084971861
20
0.54257552456944769
30
0
0
SPLINE
5
369
100
AcDbEntity
8
0
100
AcDbSpline
70
1064
71
3
72
9
73
5
74
0
42
0.000000001
43
0.0000000001
44
0.0000000001
40
0
40
0
40
0
40
0
40
0.15748261627558618
40
0.32490331709416781
40
0.32490331709416781
40
0.32490331709416781
40
0.32490331709416781
10
4.6223779084971861
20
0.54257552456944769
30
0
10
4.635533661947048
20
0.52599565145492511
30
0
10
4.6626753747012577
20
0.49178961716805453
30
0
10
4.6658560820423123
20
0.44816201927282467
30
0
10
4.6674950811664235
20
0.42568098374515828
30
0
0
SPLINE
5
370
100
AcDbEntity
8
0
100
AcDbSpline
70
1064
71
3
72
9
73
5
74
0
42
0.000000001
43
0.0000000001
44
0.0000000001
40
0
40
0
40
0
40
0
40
0.16300058419894706
40
0.3199709161567677
40
0.3199709161567677
40
0.3199709161567677
40
0.3199709161567677
10
4.6674950811664235
20
0.42568098374515828
30
0
10
4.6659711980263276
20
0.40393970200319251
30
0
10
4.6629798082294833
20
0.36126146332333292
30
0
10
4.6394096383775514
20
0.32559834464498083
30
0
10
4.6278466581217232
20
0.3081028433512028
30
0
0
SPLINE
5
371
100
AcDbEntity
8
0
100
AcDbSpline
70
1064
71
3
72
9
73
5
74
0
42
0.000000001
43
0.0000000001
44
0.0000000001
40
0
40
0
40
0
40
0
40
0.18544567757377409
40
0.37882090727708773
40
0.37882090727708773
40
0.37882090727708773
40
0.37882090727708773
10
4.6278466581217232
20
0.3081028433512028
30
0
10
4.6100350404706267
20
0.29036005960434963
30
0
10
4.5736501904868518
20
0.25411582072781802
30
0
10
4.5224108180402434
20
0.24957894342420908
30
0
10
4.4962548556147883
20
0.24726302137801789
30
0
0
SPLINE
5
372
100
AcDbEntity
8
0
100
AcDbSpline
70
1064
71
3
72
9
73
5
74
0
42
0.000000001
43
0.0000000001
44
0.0000000001
40
0
40
0
40
0
40
0
40
0.15954304782585033
40
0.30493077047815509
40
0.30493077047815509
40
0.30493077047815509
40
0.30493077047815509
10
4.4962548556147883
20
0.24726302137801789
30
0
10
4.4748869731913796
20
0.24854026133863119
30
0
10
4.4340470560677643
20
0.25098141919905032
30
0
10
4.4006036390110577
20
0.27438546878662035
30
0
10
4.3846581762558179
20
0.28554426874978167
30
0
0
SPLINE
5
373
100
AcDbEntity
8
0
100
AcDbSpline
70
1064
71
3
72
9
73
5
74
0
42
0.000000001
43
0.0000000001
44
0.0000000001
40
0
40
0
40
0
40
0
40
0.14223179622568638
40
0.29220526548325731
40
0.29220526548325731
40
0.29220526548325731
40
0.29220526548325731
10
4.3846581762558179
20
0.28554426874978167
30
0
10
4.3717672967640437
20
0.2996105378094992
30
0
10
4.3452838875393613
20
0.32850870259419868
30
0
10
4.3386654320280647
20
0.36719982383206112
30
0
10
4.3352685297425628
20
0.38705792485536383
30
0
0
LWPOLYLINE
5
374
100
AcDbEntity
8
0
100
AcDbPolyline
90
11
70
1
43
0.0
10
3.5526513441844076
20
0.36723374853260699
10
3.5526513441844076
20
0.24726302137801789
10
3.6141747891936542
20
0.24726302137801789
10
3.6141747891936542
20
0.36723374853260699
10
3.6818505599307092
20
0.36723374853260699
10
3.6818505599307092
20
0.42363020850255556
10
3.6141747891936542
20
0.42363020850255556
10
3.6141747891936542
20
0.74833725852567201
10
3.563930654951514
20
0.74833725852567212
10
3.3352685297425637
20
0.42363020850255562
10
3.3352685297425637
20
0.36723374853260699
0
LWPOLYLINE
5
375
100
AcDbEntity
8
0
100
AcDbPolyline
90
3
70
1
43
0.0
10
3.5526513441844076
20
0.64955795376596304
10
3.5526513441844076
20
0.42363020850255556
10
3.3957665746639862
20
0.42363020850255562
0
LINE
5
376
100
AcDbEntity
8
0
100
AcDbLine
10
2.3352685297425575
20
0.3884251239946962
30
0
11
2.3967919659519055
21
0.39662827189789829
31
0
0
SPLINE
5
377
100
AcDbEntity
8
0
100
AcDbSpline
70
1064
71
3
72
9
73
5
74
0
42
0.000000001
43
0.0000000001
44
0.0000000001
40
0
40
0
40
0
40
0
40
0.11991562271331636
40
0.21480761627132328
40
0.21480761627132328
40
0.21480761627132328
40
0.21480761627132328
10
2.3967919659519055
20
0.39662827189789829
30
0
10
2.400337634364671
20
0.38101775209692795
30
0
10
2.406689071838799
20
0.35305426851297989
30
0
10
2.424835351633265
20
0.33100318711747245
30
0
10
2.4328515323220512
20
0.32126204706829214
30
0
0
SPLINE
5
378
100
AcDbEntity
8
0
100
AcDbSpline
70
1064
71
3
72
9
73
5
74
0
42
0.000000001
43
0.0000000001
44
0.0000000001
40
0
40
0
40
0
40
0
40
0.084125787779543965
40
0.17120675588719944
40
0.17120675588719944
40
0.17120675588719944
40
0.17120675588719944
10
2.4328515323220512
20
0.32126204706829214
30
0
10
2.4419042475619697
20
0.31453350761357324
30
0
10
2.4603276828617209
20
0.30084006779794575
30
0
10
2.4832358698457648
20
0.29908397892021404
30
0
10
2.4948876711419485
20
0.29819077865622018
30
0
0
SPLINE
5
379
100
AcDbEntity
8
0
100
AcDbSpline
70
1064
71
3
72
9
73
5
74
0
42
0.000000001
43
0.0000000001
44
0.0000000001
40
0
40
0
40
0
40
0
40
0.10346189865467748
40
0.20558799751765999
40
0.20558799751765999
40
0.20558799751765999
40
0.20558799751765999
10
2.4948876711419485
20
0.29819077865622018
30
0
10
2.5087616657120986
20
0.29941114139821601
30
0
10
2.5363305272769554
20
0.3018361107408869
30
0
10
2.5576250273214884
20
0.31949620424723996
30
0
10
2.5682030972625562
20
0.32826887812478178
30
0
0
SPLINE
5
380
100
AcDbEntity
8
0
100
AcDbSpline
70
1064
71
3
72
9
73
5
74
0
42
0.000000001
43
0.0000000001
44
0.0000000001
40
0
40
0
40
0
40
0
40
0.10275519832536505
40
0.20822465081924268
40
0.20822465081924268
40
0.20822465081924268
40
0.20822465081924268
10
2.5682030972625562
20
0.32826887812478178
30
0
10
2.5769256233922881
20
0.33898731963666184
30
0
10
2.5946010791086427
20
0.36070732774827835
30
0
10
2.5969304480495445
20
0.38863482729807552
30
0
10
2.598110314438498
20
0.40278059762570639
30
0
0
SPLINE
5
381
100
AcDbEntity
8
0
100
AcDbSpline
70
1064
71
3
72
9
73
5
74
0
42
0.000000001
43
0.0000000001
44
0.0000000001
40
0
40
0
40
0
40
0
40
0.09977213220473885
40
0.19503294595932674
40
0.19503294595932674
40
0.19503294595932674
40
0.19503294595932674
10
2.598110314438498
20
0.40278059762570639
30
0
10
2.597067271023489
20
0.41617691592987699
30
0
10
2.5950283466715947
20
0.44236382169339977
30
0
10
2.5784985169145243
20
0.46273035561303932
30
0
10
2.5704247782641745
20
0.4726780728307749
30
0
0
SPLINE
5
382
100
AcDbEntity
8
0
100
AcDbSpline
70
1064
71
3
72
9
73
5
74
0
42
0.000000001
43
0.0000000001
44
0.0000000001
40
0
40
0
40
0
40
0
40
0.095534112297351925
40
0.19603516364544749
40
0.19603516364544749
40
0.19603516364544749
40
0.19603516364544749
10
2.5704247782641745
20
0.4726780728307749
30
0
10
2.5603973435943792
20
0.48070173598299998
30
0
10
2.5398211352729061
20
0.49716622265961918
30
0
10
2.5135057102128995
20
0.49916699419198945
30
0
10
2.5000146209816529
20
0.50019272671247883
30
0
0
SPLINE
5
383
100
AcDbEntity
8
0
100
AcDbSpline
70
1064
71
3
72
9
73
5
74
0
42
0.000000001
43
0.0000000001
44
0.0000000001
40
0
40
0
40
0
40
0
40
0.049891572191857567
40
0.11183044753801361
40
0.11183044753801361
40
0.11183044753801361
40
0.11183044753801361
10
2.5000146209816529
20
0.50019272671247883
30
0
10
2.4934648929290115
20
0.49980306121406542
30
0
10
2.4787838759315406
20
0.49892963780479505
30
0
10
2.4645114234681649
20
0.49534320046831631
30
0
10
2.4566064237701846
20
0.49335680141500449
30
0
0
LINE
5
384
100
AcDbEntity
8
0
100
AcDbLine
10
2.4566064237701846
20
0.49335680141500438
30
0
11
2.4634423608008569
21
0.54736069809071508
31
0
0
SPLINE
5
385
100
AcDbEntity
8
0
100
AcDbSpline
70
1064
71
3
72
9
73
5
74
0
42
0.000000001
43
0.0000000001
44
0.0000000001
40
0
40
0
40
0
40
0
40
0.014167655630055747
40
0.025245251342024252
40
0.025245251342024252
40
0.025245251342024252
40
0.025245251342024252
10
2.4634423608008569
20
0.54736069809071508
30
0
10
2.4652919534987814
20
0.54716227778608195
30
0
10
2.4685877304260817
20
0.54680871396489483
30
0
10
2.4719007306366119
20
0.54671723806942218
30
0
10
2.4733544724286309
20
0.54667709852104895
30
0
0
SPLINE
5
386
100
AcDbEntity
8
0
100
AcDbSpline
70
1064
71
3
72
9
73
5
74
0
42
0.000000001
43
0.0000000001
44
0.0000000001
40
0
40
0
40
0
40
0
40
0.095736694352269447
40
0.18916046465505376
40
0.18916046465505376
40
0.18916046465505376
40
0.18916046465505376
10
2.4733544724286309
20
0.54667709852104895
30
0
10
2.486063353913381
20
0.5474890254993181
30
0
10
2.511174080194106
20
0.54909326393176572
30
0
10
2.5332188212165425
20
0.56120372835104559
30
0
10
2.5441064177627872
20
0.56718492134626308
30
0
0
SPLINE
5
387
100
AcDbEntity
8
0
100
AcDbSpline
70
1064
71
3
72
9
73
5
74
0
42
0.000000001
43
0.0000000001
44
0.0000000001
40
0
40
0
40
0
40
0
40
0.089277723838645101
40
0.18577902725914147
40
0.18577902725914147
40
0.18577902725914147
40
0.18577902725914147
10
2.5441064177627872
20
0.56718492134626308
30
0
10
2.5532741440068358
20
0.57520540209868032
30
0
10
2.5723513694396396
20
0.59189531138700147
30
0
10
2.574457635003057
20
0.61724807862796471
30
0
10
2.5755517163706814
20
0.63041735354647699
30
0
0
SPLINE
5
388
100
AcDbEntity
8
0
100
AcDbSpline
70
1064
71
3
72
9
73
5
74
0
42
0.000000001
43
0.0000000001
44
0.0000000001
40
0
40
0
40
0
40
0
40
0.079903199120950008
40
0.15720062034201168
40
0.15720062034201168
40
0.15720062034201168
40
0.15720062034201168
10
2.5755517163706814
20
0.63041735354647699
30
0
10
2.5746623998335871
20
0.64114871344411295
30
0
10
2.5729127688695006
20
0.6622614655188851
30
0
10
2.5593300937282364
20
0.67849153168867871
30
0
10
2.552651330251229
20
0.68647204893118596
30
0
0
SPLINE
5
389
100
AcDbEntity
8
0
100
AcDbSpline
70
1064
71
3
72
9
73
5
74
0
42
0.000000001
43
0.0000000001
44
0.0000000001
40
0
40
0
40
0
40
0
40
0.078936651251119469
40
0.1636799815361859
40
0.1636799815361859
40
0.1636799815361859
40
0.1636799815361859
10
2.552651330251229
20
0.68647204893118596
30
0
10
2.5442615635101307
20
0.69294968794845768
30
0
10
2.5268648682676722
20
0.70638146923054101
30
0
10
2.5048950772504863
20
0.70790172037573262
30
0
10
2.4935204837358138
20
0.70868881201457634
30
0
0
SPLINE
5
390
100
AcDbEntity
8
0
100
AcDbSpline
70
1064
71
3
72
9
73
5
74
0
42
0.000000001
43
0.0000000001
44
0.0000000001
40
0
40
0
40
0
40
0
40
0.084779733875516669
40
0.16553208052234503
40
0.16553208052234503
40
0.16553208052234503
40
0.16553208052234503
10
2.4935204837358138
20
0.70868881201457634
30
0
10
2.4821585078662673
20
0.70784376785271907
30
0
10
2.4599742968696603
20
0.70619382261402697
30
0
10
2.4423189394027323
20
0.69270873531390176
30
0
10
2.4337060376507327
20
0.68613023741315515
30
0
0
SPLINE
5
391
100
AcDbEntity
8
0
100
AcDbSpline
70
1064
71
3
72
9
73
5
74
0
42
0.000000001
43
0.0000000001
44
0.0000000001
40
0
40
0
40
0
40
0
40
0.087303353226768993
40
0.19147044525956519
40
0.19147044525956519
40
0.19147044525956519
40
0.19147044525956519
10
2.4337060376507327
20
0.68613023741315515
30
0
10
2.4263689081660056
20
0.67710230487928036
30
0
10
2.4102773905158337
20
0.65730258129312746
30
0
10
2.4055281045522769
20
0.63214248029762321
30
0
10
2.4029443151461094
20
0.61845444320970477
30
0
0
LINE
5
392
100
AcDbEntity
8
0
100
AcDbLine
10
2.402944315146109
20
0.61845444320970477
30
0
11
2.3414208730701622
21
0.62939194245878016
31
0
0
SPLINE
5
393
100
AcDbEntity
8
0
100
AcDbSpline
70
1064
71
3
72
9
73
5
74
0
42
0.000000001
43
0.0000000001
44
0.0000000001
40
0
40
0
40
0
40
0
40
0.14711833953087194
40
0.28044873500630657
40
0.28044873500630657
40
0.28044873500630657
40
0.28044873500630657
10
2.3414208730701622
20
0.62939194245878016
30
0
10
2.346021445769646
20
0.64853961969019247
30
0
10
2.354791425080105
20
0.68504045211517905
30
0
10
2.3804783673118259
20
0.71230427577267297
30
0
10
2.3926904037335022
20
0.72526599011360038
30
0
0
SPLINE
5
394
100
AcDbEntity
8
0
100
AcDbSpline
70
1064
71
3
72
9
73
5
74
0
42
0.000000001
43
0.0000000001
44
0.0000000001
40
0
40
0
40
0
40
0
40
0.1310768014479069
40
0.27143729540870576
40
0.27143729540870576
40
0.27143729540870576
40
0.27143729540870576
10
2.3926904037335022
20
0.72526599011360038
30
0
10
2.4071506752838374
20
0.73518200843387016
30
0
10
2.4370953867594087
20
0.7557163605415308
30
0
10
2.4733869124800618
20
0.75806188483988368
30
0
10
2.4921532963296795
20
0.75927475777474762
30
0
0
SPLINE
5
395
100
AcDbEntity
8
0
100
AcDbSpline
70
1064
71
3
72
9
73
5
74
0
42
0.000000001
43
0.0000000001
44
0.0000000001
40
0
40
0
40
0
40
0
40
0.10067834154996398
40
0.19841889616081099
40
0.19841889616081099
40
0.19841889616081099
40
0.19841889616081099
10
2.4921532963296795
20
0.75927475777474762
30
0
10
2.5054667189446609
20
0.75858573578433219
30
0
10
2.5317050794372813
20
0.75722779741681445
30
0
10
2.5558142822682792
20
0.74680599009402127
30
0
10
2.5676904034519055
20
0.74167223898721324
30
0
0
SPLINE
5
396
100
AcDbEntity
8
0
100
AcDbSpline
70
1064
71
3
72
9
73
5
74
0
42
0.000000001
43
0.0000000001
44
0.0000000001
40
0
40
0
40
0
40
0
40
0.093701553915797042
40
0.18314363328748254
40
0.18314363328748254
40
0.18314363328748254
40
0.18314363328748254
10
2.5676904034519055
20
0.74167223898721324
30
0
10
2.5784460848970214
20
0.73539360046760294
30
0
10
2.5994685172476251
20
0.72312173706165017
30
0
10
2.6135977138059459
20
0.70332024237229596
30
0
10
2.6204980067472996
20
0.69364976228029551
30
0
0
SPLINE
5
397
100
AcDbEntity
8
0
100
AcDbSpline
70
1064
71
3
72
9
73
5
74
0
42
0.000000001
43
0.0000000001
44
0.0000000001
40
0
40
0
40
0
40
0
40
0.086938196244546073
40
0.17216191293026942
40
0.17216191293026942
40
0.17216191293026942
40
0.17216191293026942
10
2.6204980067472996
20
0.69364976228029551
30
0
10
2.6258313121358223
20
0.68341097400162021
30
0
10
2.636392746552366
20
0.663135313218569
30
0
10
2.6379923243792618
20
0.64033619210111625
30
0
10
2.6387841485708954
20
0.62905015440714473
30
0
0
SPLINE
5
398
100
AcDbEntity
8
0
100
AcDbSpline
70
1064
71
3
72
9
73
5
74
0
42
0.000000001
43
0.0000000001
44
0.0000000001
40
0
40
0
40
0
40
0
40
0.079559672770657563
40
0.15830997755055809
40
0.15830997755055809
40
0.15830997755055809
40
0.15830997755055809
10
2.6387841485708954
20
0.62905015440714473
30
0
10
2.6380728041214789
20
0.61849165431996211
30
0
10
2.636657351796249
20
0.59748206675431392
30
0
10
2.626436707457553
20
0.57907551821166581
30
0
10
2.6213525120759811
20
0.56991929615853176
30
0
0
SPLINE
5
399
100
AcDbEntity
8
0
100
AcDbSpline
70
1064
71
3
72
9
73
5
74
0
42
0.000000001
43
0.0000000001
44
0.0000000001
40
0
40
0
40
0
40
0
40
0.081905050813962307
40
0.17135571191814661
40
0.17135571191814661
40
0.17135571191814661
40
0.17135571191814661
10
2.6213525120759811
20
0.56991929615853176
30
0
10
2.6146118497515314
20
0.5613843354630299
30
0
10
2.6005095327402215
20
0.54352811961752578
30
0
10
2.580294025155208
20
0.53302124570693854
30
0
10
2.5697411786945081
20
0.52753647483516708
30
0
0
SPLINE
5
400
100
AcDbEntity
8
0
100
AcDbSpline
70
1064
71
3
72
9
73
5
74
0
42
0.000000001
43
0.0000000001
44
0.0000000001
40
0
40
0
40
0
40
0
40
0.1079731109628267
40
0.20931015993808211
40
0.20931015993808211
40
0.20931015993808211
40
0.20931015993808211
10
2.5697411786945081
20
0.52753647483516708
30
0
10
2.5835861000409874
20
0.5233798699890857
30
0
10
2.6104250294329501
20
0.51532212656227805
30
0
10
2.6295330451889272
20
0.49487985269960455
30
0
10
2.6387841485708954
20
0.48498277121918248
30
0
0
SPLINE
5
401
100
AcDbEntity
8
0
100
AcDbSpline
70
1064
71
3
72
9
73
5
74
0
42
0.000000001
43
0.0000000001
44
0.0000000001
40
0
40
0
40
0
40
0
40
0.10356888069628292
40
0.21761446294093162
40
0.21761446294093162
40
0.21761446294093162
40
0.21761446294093162
10
2.6387841485708954
20
0.48498277121918248
30
0
10
2.6459573446624267
20
0.47318303879130619
30
0
10
2.6610293547540134
20
0.44838995019291639
30
0
10
2.6625805725361325
20
0.41936103158389099
30
0
10
2.6633935218813147
20
0.40414779676503865
30
0
0
SPLINE
5
402
100
AcDbEntity
8
0
100
AcDbSpline
70
1064
71
3
72
9
73
5
74
0
42
0.000000001
43
0.0000000001
44
0.0000000001
40
0
40
0
40
0
40
0
40
0.1569598973307462
40
0.31458847105793958
40
0.31458847105793958
40
0.31458847105793958
40
0.31458847105793958
10
2.6633935218813147
20
0.40414779676503865
30
0
10
2.661382799680851
20
0.38308983305331396
30
0
10
2.6573527892544733
20
0.34088419505072481
30
0
10
2.629498632259657
20
0.30891265836366472
30
0
10
2.6155419509334124
20
0.29289291132430234
30
0
0
SPLINE
5
403
100
AcDbEntity
8
0
100
AcDbSpline
70
1064
71
3
72
9
73
5
74
0
42
0.000000001
43
0.0000000001
44
0.0000000001
40
0
40
0
40
0
40
0
40
0.1627599471294931
40
0.33494148269920604
40
0.33494148269920604
40
0.33494148269920604
40
0.33494148269920604
10
2.6155419509334124
20
0.29289291132430234
30
0
10
2.5982117837576637
20
0.27958712556426346
30
0
10
2.5625482683065797
20
0.25220532992261435
30
0
10
2.5176344646715108
20
0.24894106446384123
30
0
10
2.4945458713571154
20
0.24726302137801806
30
0
0
SPLINE
5
404
100
AcDbEntity
8
0
100
AcDbSpline
70
1064
71
3
72
9
73
5
74
0
42
0.000000001
43
0.0000000001
44
0.0000000001
40
0
40
0
40
0
40
0
40
0.15535760831416637
40
0.3009895324812556
40
0.3009895324812556
40
0.3009895324812556
40
0.3009895324812556
10
2.4945458713571154
20
0.24726302137801806
30
0
10
2.4737421369691175
20
0.24867853159515316
30
0
10
2.4334370218527392
20
0.25142093837587776
30
0
10
2.4007940656319264
20
0.27510855131790946
30
0
10
2.3849999731073463
20
0.28656965637108323
30
0
0
SPLINE
5
405
100
AcDbEntity
8
0
100
AcDbSpline
70
1064
71
3
72
9
73
5
74
0
42
0.000000001
43
0.0000000001
44
0.0000000001
40
0
40
0
40
0
40
0
40
0.14383521548591449
40
0.29323735066521006
40
0.29323735066521006
40
0.29323735066521006
40
0.29323735066521006
10
2.3849999731073463
20
0.28656965637108323
30
0
10
2.372015417808115
20
0.30083151758669474
30
0
10
2.3455437600666533
20
0.32990722331211503
30
0
10
2.3387366824920801
20
0.36867383747874627
30
0
10
2.3352685297425575
20
0.3884251239946962
30
0
0
LINE
5
406
100
AcDbEntity
8
0
100
AcDbLine
10
1.6593545682804605
20
0.31419261472749971
30
0
11
1.6593545682804605
21
0.25506175647888668
31
0
0
LINE
5
407
100
AcDbEntity
8
0
100
AcDbLine
10
1.6593545682804605
20
0.25506175647888668
30
0
11
1.3281533883447532
21
0.25506175647888679
31
0
0
SPLINE
5
408
100
AcDbEntity
8
0
100
AcDbSpline
70
1064
71
3
72
9
73
5
74
0
42
0.000000001
43
0.0000000001
44
0.0000000001
40
0
40
0
40
0
40
0
40
0.055468388772629842
40
0.11059587887879624
40
0.11059587887879624
40
0.11059587887879624
40
0.11059587887879624
10
1.3281533883447534
20
0.25506175647888679
30
0
10
1.3282775056190606
20
0.26238556081464676
30
0
10
1.3285249773653969
20
0.2769881587118006
30
0
10
1.3330670750765206
20
0.29086789101552302
30
0
10
1.3353311236936087
20
0.29778636585388679
30
0
0
SPLINE
5
409
100
AcDbEntity
8
0
100
AcDbSpline
70
1064
71
3
72
9
73
5
74
0
42
0.000000001
43
0.0000000001
44
0.0000000001
40
0
40
0
40
0
40
0
40
0.094979988311230931
40
0.19884521737105448
40
0.19884521737105448
40
0.19884521737105448
40
0.19884521737105448
10
1.3353311236936087
20
0.29778636585388679
30
0
10
1.3403724999171063
20
0.30924623534977352
30
0
10
1.3509268658296996
20
0.33323802858401275
30
0
10
1.3672879624481027
20
0.35373192435115269
30
0
10
1.3758340520669907
20
0.36443674896964018
30
0
0
SPLINE
5
410
100
AcDbEntity
8
0
100
AcDbSpline
70
1064
71
3
72
9
73
5
74
0
42
0.000000001
43
0.0000000001
44
0.0000000001
40
0
40
0
40
0
40
0
40
0.12471800588565947
40
0.28123879483281661
40
0.28123879483281661
40
0.28123879483281661
40
0.28123879483281661
10
1.3758340520669907
20
0.36443674896964018
30
0
10
1.3869662394427302
20
0.37645805336561422
30
0
10
1.4120692944440776
20
0.40356606504872078
30
0
10
1.4405028069269659
20
0.42717585982613226
30
0
10
1.4563272091365047
20
0.44031566760989704
30
0
0
SPLINE
5
411
100
AcDbEntity
8
0
100
AcDbSpline
70
1064
71
3
72
9
73
5
74
0
42
0.000000001
43
0.0000000001
44
0.0000000001
40
0
40
0
40
0
40
0
40
0.23123857710791634
40
0.38956568387630852
40
0.38956568387630852
40
0.38956568387630852
40
0.38956568387630852
10
1.4563272091365047
20
0.44031566760989704
30
0
10
1.4798513086325233
20
0.45960270734136338
30
0
10
1.5194821609857794
20
0.49209542078437923
30
0
10
1.5530748766177267
20
0.53073834992142577
30
0
10
1.5667276127149554
20
0.54644359147773092
30
0
0
SPLINE
5
412
100
AcDbEntity
8
0
100
AcDbSpline
70
1064
71
3
72
9
73
5
74
0
42
0.000000001
43
0.0000000001
44
0.0000000001
40
0
40
0
40
0
40
0
40
0.11108900763828886
40
0.20415792260004181
40
0.20415792260004181
40
0.20415792260004181
40
0.20415792260004181
10
1.5667276127149554
20
0.54644359147773092
30
0
10
1.5750811818709531
20
0.55869560708569099
30
0
10
1.590433261806147
20
0.58121220082761127
30
0
10
1.5938712800044117
20
0.60815862453716052
30
0
10
1.5954385599769758
20
0.62044261716800475
30
0
0
SPLINE
5
413
100
AcDbEntity
8
0
100
AcDbSpline
70
1064
71
3
72
9
73
5
74
0
42
0.000000001
43
0.0000000001
44
0.0000000001
40
0
40
0
40
0
40
0
40
0.087217720089816625
40
0.17401419447764965
40
0.17401419447764965
40
0.17401419447764965
40
0.17401419447764965
10
1.5954385599769758
20
0.62044261716800475
30
0
10
1.5943596793390729
20
0.63214609844252068
30
0
10
1.5922071288602373
20
0.65549653530869723
30
0
10
1.5769174422489047
20
0.6732711664017742
30
0
10
1.5692911052346044
20
0.68213696793626688
30
0
0
SPLINE
5
414
100
AcDbEntity
8
0
100
AcDbSpline
70
1064
71
3
72
9
73
5
74
0
42
0.000000001
43
0.0000000001
44
0.0000000001
40
0
40
0
40
0
40
0
40
0.090242260524668327
40
0.18824112858177894
40
0.18824112858177894
40
0.18824112858177894
40
0.18824112858177894
10
1.5692911052346044
20
0.68213696793626688
30
0
10
1.5596450119187255
20
0.68946081676112481
30
0
10
1.5395237130768171
20
0.70473802236677074
30
0
10
1.5142566898133427
20
0.70639591037079796
30
0
10
1.5011026054873056
20
0.70725901159094151
30
0
0
SPLINE
5
415
100
AcDbEntity
8
0
100
AcDbSpline
70
1064
71
3
72
9
73
5
74
0
42
0.000000001
43
0.0000000001
44
0.0000000001
40
0
40
0
40
0
40
0
40
0.10297629589286837
40
0.19689559588230671
40
0.19689559588230671
40
0.19689559588230671
40
0.19689559588230671
10
1.5011026054873056
20
0.70725901159094151
30
0
10
1.4872593520091952
20
0.70636734535189816
30
0
10
1.4607903902069763
20
0.70466243691697816
30
0
10
1.4399498220456226
20
0.68837026218726682
30
0
10
1.4300088603683159
20
0.68059888650431488
30
0
0
SPLINE
5
416
100
AcDbEntity
8
0
100
AcDbSpline
70
1064
71
3
72
9
73
5
74
0
42
0.000000001
43
0.0000000001
44
0.0000000001
40
0
40
0
40
0
40
0
40
0.095500273292771623
40
0.20372198377743778
40
0.20372198377743778
40
0.20372198377743778
40
0.20372198377743778
10
1.4300088603683159
20
0.68059888650431488
30
0
10
1.4222236489758935
20
0.67041820816711395
30
0
10
1.4056161707529911
20
0.64870069977112987
30
0
10
1.4039121268398411
20
0.62131737993325431
30
0
10
1.4030069002972627
20
0.60677074310666068
30
0
0
LINE
5
417
100
AcDbEntity
8
0
100
AcDbLine
10
1.4030069002972629
20
0.60677074310666068
30
0
11
1.3397744827635458
21
0.61326488035249971
31
0
0
SPLINE
5
418
100
AcDbEntity
8
0
100
AcDbSpline
70
1064
71
3
72
9
73
5
74
0
42
0.000000001
43
0.0000000001
44
0.0000000001
40
0
40
0
40
0
40
0
40
0.1631321418129183
40
0.30651682611296005
40
0.30651682611296005
40
0.30651682611296005
40
0.30651682611296005
10
1.3397744827635458
20
0.61326488035249971
30
0
10
1.3429300600747573
20
0.63498057754564952
30
0
10
1.348859226033333
20
0.67578324528790101
30
0
10
1.3759695614244438
20
0.70665866268547051
30
0
10
1.3886514325328514
20
0.72110179141130115
30
0
0
SPLINE
5
419
100
AcDbEntity
8
0
100
AcDbSpline
70
1064
71
3
72
9
73
5
74
0
42
0.000000001
43
0.0000000001
44
0.0000000001
40
0
40
0
40
0
40
0
40
0.14454205994553238
40
0.3092321645705508
40
0.3092321645705508
40
0.3092321645705508
40
0.3092321645705508
10
1.3886514325328514
20
0.72110179141130115
30
0
10
1.4046800498216365
20
0.73190592629800477
30
0
10
1.4389715496186637
20
0.75502020887144106
30
0
10
1.4804038698335713
20
0.75708637513114052
30
0
10
1.5024697928934398
20
0.7581867688691436
30
0
0
SPLINE
5
420
100
AcDbEntity
8
0
100
AcDbSpline
70
1064
71
3
72
9
73
5
74
0
42
0.000000001
43
0.0000000001
44
0.0000000001
40
0
40
0
40
0
40
0
40
0.16603643438395344
40
0.3131769542324726
40
0.3131769542324726
40
0.3131769542324726
40
0.3131769542324726
10
1.5024697928934398
20
0.7581867688691436
30
0
10
1.524769492947136
20
0.75696138435626281
30
0
10
1.5668310571395143
20
0.75465007123434757
30
0
10
1.6007117357088381
20
0.72984889452903456
30
0
10
1.6166299589054605
20
0.71819651084001679
30
0
0
SPLINE
5
421
100
AcDbEntity
8
0
100
AcDbSpline
70
1064
71
3
72
9
73
5
74
0
42
0.000000001
43
0.0000000001
44
0.0000000001
40
0
40
0
40
0
40
0
40
0.13909889957774324
40
0.27969475494061352
40
0.27969475494061352
40
0.27969475494061352
40
0.27969475494061352
10
1.6166299589054605
20
0.71819651084001679
30
0
10
1.628891823200322
20
0.70401667997390749
30
0
10
1.6535475116311968
20
0.67550441761068758
30
0
10
1.6569570669179354
20
0.63795207924595665
30
0
10
1.6586709687107943
20
0.61907541802867261
30
0
0
SPLINE
5
422
100
AcDbEntity
8
0
100
AcDbSpline
70
1064
71
3
72
9
73
5
74
0
42
0.000000001
43
0.0000000001
44
0.0000000001
40
0
40
0
40
0
40
0
40
0.076149229802496499
40
0.15419743025085342
40
0.15419743025085342
40
0.15419743025085342
40
0.15419743025085342
10
1.6586709687107943
20
0.61907541802867261
30
0
10
1.658133481965111
20
0.60903393355989466
30
0
10
1.6570451049034758
20
0.58870055520524367
30
0
10
1.6499550028117269
20
0.56960826664197062
30
0
10
1.6463662937887824
20
0.55994455978005964
30
0
0
SPLINE
5
423
100
AcDbEntity
8
0
100
AcDbSpline
70
1064
71
3
72
9
73
5
74
0
42
0.000000001
43
0.0000000001
44
0.0000000001
40
0
40
0
40
0
40
0
40
0.086401219144140812
40
0.18745267971511409
40
0.18745267971511409
40
0.18745267971511409
40
0.18745267971511409
10
1.6463662937887824
20
0.55994455978005964
30
0
10
1.6412627289101809
20
0.54977286038505668
30
0
10
1.6301902356968878
20
0.52770474227587827
30
0
10
1.6141620064181896
20
0.50890008679602428
30
0
10
1.6055215538973697
20
0.49876292628884383
30
0
0
SPLINE
5
424
100
AcDbEntity
8
0
100
AcDbSpline
70
1064
71
3
72
9
73
5
74
0
42
0.000000001
43
0.0000000001
44
0.0000000001
40
0
40
0
40
0
40
0
40
0.13666623921531446
40
0.3291225904902112
40
0.3291225904902112
40
0.3291225904902112
40
0.3291225904902112
10
1.6055215538973697
20
0.49876292628884383
30
0
10
1.5930269006676929
20
0.48588282390109633
30
0
10
1.5629370067638346
20
0.45486468300562644
30
0
10
1.5299577372293272
20
0.4269200939175728
30
0
10
1.5106729173302462
20
0.41057933272657504
30
0
0
SPLINE
5
425
100
AcDbEntity
8
0
100
AcDbSpline
70
1064
71
3
72
9
73
5
74
0
42
0.000000001
43
0.0000000001
44
0.0000000001
40
0
40
0
40
0
40
0
40
0.15214805277775761
40
0.24143675198608655
40
0.24143675198608655
40
0.24143675198608655
40
0.24143675198608655
10
1.5106729173302462
20
0.41057933272657504
30
0
10
1.495333251350061
20
0.39778483343341897
30
0
10
1.4709914404415958
20
0.3774818305606838
30
0
10
1.4480598033793166
20
0.35560744299439478
30
0
10
1.4395791722112565
20
0.34751780628537648
30
0
0
SPLINE
5
426
100
AcDbEntity
8
0
100
AcDbSpline
70
1064
71
3
72
9
73
5
74
0
42
0.000000001
43
0.0000000001
44
0.0000000001
40
0
40
0
40
0
40
0
40
0.055781792637927714
40
0.10747044112194373
40
0.10747044112194373
40
0.10747044112194373
40
0.10747044112194373
10
1.4395791722112565
20
0.34751780628537648
30
0
10
1.4346370789986436
20
0.34209967073819347
30
0
10
1.4251155324059626
20
0.33166097040645975
30
0
10
1.4173415580008664
20
0.31986565356253538
30
0
10
1.4136026114947027
20
0.31419261472749976
30
0
0
LINE
5
427
100
AcDbEntity
8
0
100
AcDbLine
10
1.4136026114947025
20
0.31419261472749971
30
0
11
1.6593545682804605
21
0.31419261472749971
31
0
0
LINE
5
428
100
AcDbEntity
8
0
100
AcDbLine
10
0.5354363173722374
20
0.24726302137801756
30
0
11
0.47391287236299079
21
0.24726302137801756
31
0
0
LINE
5
429
100
AcDbEntity
8
0
100
AcDbLine
10
0.47391287236299079
20
0.24726302137801756
30
0
11
0.47391287236299084
21
0.63930403062015795
31
0
0
SPLINE
5
430
100
AcDbEntity
8
0
100
AcDbSpline
70
1064
71
3
72
9
73
5
74
0
42
0.000000001
43
0.0000000001
44
0.0000000001
40
0
40
0
40
0
40
0
40
0.08456363239377325
40
0.18332236569593999
40
0.18332236569593999
40
0.18332236569593999
40
0.18332236569593999
10
0.47391287236299084
20
0.63930403062015806
30
0
10
0.46552560129645654
20
0.63200605651778141
30
0
10
0.44734314708859546
20
0.6161850488415086
30
0
10
0.42673724275887454
20
0.60366564095366293
30
0
10
0.4156365077098616
20
0.59692123276318887
30
0
0
SPLINE
5
431
100
AcDbEntity
8
0
100
AcDbSpline
70
1064
71
3
72
9
73
5
74
0
42
0.000000001
43
0.0000000001
44
0.0000000001
40
0
40
0
40
0
40
0
40
0.098864348740880681
40
0.18343550984673962
40
0.18343550984673962
40
0.18343550984673962
40
0.18343550984673962
10
0.4156365077098616
20
0.59692123276318887
30
0
10
0.40436274564876151
20
0.59046558558995399
30
0
10
0.38344511135584897
20
0.57848760823315448
30
0
10
0.36114653986548023
20
0.56934789753189941
30
0
10
0.3508659999442944
20
0.56513412263726415
30
0
0
LINE
5
432
100
AcDbEntity
8
0
100
AcDbLine
10
0.3508659999442944
20
0.56513412263726426
30
0
11
0.3508659999442944
21
0.62460676893751244
31
0
0
SPLINE
5
433
100
AcDbEntity
8
0
100
AcDbSpline
70
1064
71
3
72
9
73
5
74
0
42
0.000000001
43
0.0000000001
44
0.0000000001
40
0
40
0
40
0
40
0
40
0.14048305822892435
40
0.27427191030922315
40
0.27427191030922315
40
0.27427191030922315
40
0.27427191030922315
10
0.3508659999442944
20
0.62460676893751244
30
0
10
0.36736296268645485
20
0.63297627345949448
30
0
10
0.39957078576942945
20
0.6493164643873216
30
0
10
0.4274842749285957
20
0.67222240407952716
30
0
10
0.44110037461576485
20
0.6833958391344902
30
0
0
SPLINE
5
434
100
AcDbEntity
8
0
100
AcDbSpline
70
1064
71
3
72
9
73
5
74
0
42
0.000000001
43
0.0000000001
44
0.0000000001
40
0
40
0
40
0
40
0
40
0.12033544367645023
40
0.22062442043448061
40
0.22062442043448061
40
0.22062442043448061
40
0.22062442043448061
10
0.44110037461576485
20
0.6833958391344902
30
0
10
0.45272579783350125
20
0.69422597575787659
30
0
10
0.47403998575152517
20
0.71408207586239181
30
0
10
0.48899141685399944
20
0.73904202141586128
30
0
10
0.49578787086114157
20
0.75038803376827445
30
0
0
LINE
5
435
100
AcDbEntity
8
0
100
AcDbLine
10
0.49578787086114157
20
0.75038803376827445
30
0
11
0.5354363173722374
21
0.75038803376827445
31
0
0
LINE
5
436
100
AcDbEntity
8
0
100
AcDbLine
10
0.5354363173722374
20
0.75038803376827445
30
0
11
0.5354363173722374
21
0.24726302137801756
31
0
0
LWPOLYLINE
5
437
100
AcDbEntity
8
0
100
AcDbPolyline
90
4
70
1
43
0.0
10
8.800000280845822
20
0.19999999999999998
10
8.1999999999999993
20
0.19999999999999998
10
8.1999999999999993
20
0.14999999999999999
10
8.800000280845822
20
0.14999999999999999
0
ENDSEC
0
SECTION
2
OBJECTS
0
DICTIONARY
5
C
100
AcDbDictionary
3
ACAD_GROUP
350
D
3
ACAD_MLINESTYLE
350
17
0
DICTIONARY
5
D
100
AcDbDictionary
0
DICTIONARY
5
1A
330
C
100
AcDbDictionary
0
DICTIONARY
5
17
100
AcDbDictionary
0
ENDSEC
0
EOF
